  0
SECTION
  2
HEADER
  9
$ACADVER
  1
AC1009
  9
$DWGCODEPAGE
  3
dos932
  9
$INSBASE
 10
0.0
 20
0.0
 30
0.0
  9
$EXTMIN
 10
-3981.468708893902
 20
-5502.468194887731
 30
0.0
  9
$EXTMAX
 10
6311.936217637272
 20
1964.965838381532
 30
0.0
  9
$LIMMIN
 10
0.0
 20
0.0
  9
$LIMMAX
 10
12.0
 20
9.0
  9
$ORTHOMODE
 70
     0
  9
$REGENMODE
 70
     1
  9
$FILLMODE
 70
     1
  9
$QTEXTMODE
 70
     0
  9
$MIRRTEXT
 70
     1
  9
$DRAGMODE
 70
     2
  9
$LTSCALE
 40
30.0
  9
$OSMODE
 70
    37
  9
$ATTMODE
 70
     1
  9
$TEXTSIZE
 40
0.2
  9
$TRACEWID
 40
1.0
  9
$TEXTSTYLE
  7
STANDARD
  9
$CLAYER
  8
0
  9
$CELTYPE
  6
BYLAYER
  9
$CECOLOR
 62
   256
  9
$DIMSCALE
 40
1.0
  9
$DIMASZ
 40
0.18
  9
$DIMEXO
 40
0.0625
  9
$DIMDLI
 40
0.38
  9
$DIMRND
 40
0.0
  9
$DIMDLE
 40
0.0
  9
$DIMEXE
 40
0.18
  9
$DIMTP
 40
0.0
  9
$DIMTM
 40
0.0
  9
$DIMTXT
 40
0.18
  9
$DIMCEN
 40
0.09
  9
$DIMTSZ
 40
0.0
  9
$DIMTOL
 70
     0
  9
$DIMLIM
 70
     0
  9
$DIMTIH
 70
     1
  9
$DIMTOH
 70
     1
  9
$DIMSE1
 70
     0
  9
$DIMSE2
 70
     0
  9
$DIMTAD
 70
     0
  9
$DIMZIN
 70
     0
  9
$DIMBLK
  1

  9
$DIMASO
 70
     1
  9
$DIMSHO
 70
     1
  9
$DIMPOST
  1

  9
$DIMAPOST
  1

  9
$DIMALT
 70
     0
  9
$DIMALTD
 70
     2
  9
$DIMALTF
 40
25.4
  9
$DIMLFAC
 40
1.0
  9
$DIMTOFL
 70
     0
  9
$DIMTVP
 40
0.0
  9
$DIMTIX
 70
     0
  9
$DIMSOXD
 70
     0
  9
$DIMSAH
 70
     0
  9
$DIMBLK1
  1

  9
$DIMBLK2
  1

  9
$DIMSTYLE
  2
STANDARD
  9
$DIMCLRD
 70
     0
  9
$DIMCLRE
 70
     0
  9
$DIMCLRT
 70
     0
  9
$DIMTFAC
 40
1.0
  9
$DIMGAP
 40
0.09
  9
$LUNITS
 70
     2
  9
$LUPREC
 70
     1
  9
$SKETCHINC
 40
0.1
  9
$FILLETRAD
 40
0.0
  9
$AUNITS
 70
     0
  9
$AUPREC
 70
     0
  9
$MENU
  1
.
  9
$ELEVATION
 40
0.0
  9
$PELEVATION
 40
0.0
  9
$THICKNESS
 40
0.0
  9
$LIMCHECK
 70
     0
  9
$CHAMFERA
 40
0.0
  9
$CHAMFERB
 40
0.0
  9
$SKPOLY
 70
     0
  9
$TDCREATE
 40
2460217.377656667
  9
$TDUPDATE
 40
2460217.377669849
  9
$TDINDWG
 40
0.0000000116
  9
$TDUSRTIMER
 40
0.0000000116
  9
$USRTIMER
 70
     1
  9
$ANGBASE
 50
0.0
  9
$ANGDIR
 70
     0
  9
$PDMODE
 70
     1
  9
$PDSIZE
 40
-2.0
  9
$PLINEWID
 40
0.0
  9
$COORDS
 70
     1
  9
$SPLFRAME
 70
     0
  9
$SPLINETYPE
 70
     6
  9
$SPLINESEGS
 70
     8
  9
$ATTDIA
 70
     0
  9
$ATTREQ
 70
     1
  9
$HANDLING
 70
     1
  9
$HANDSEED
  5
2D2
  9
$SURFTAB1
 70
     6
  9
$SURFTAB2
 70
     6
  9
$SURFTYPE
 70
     6
  9
$SURFU
 70
     6
  9
$SURFV
 70
     6
  9
$UCSNAME
  2

  9
$UCSORG
 10
0.0
 20
0.0
 30
0.0
  9
$UCSXDIR
 10
1.0
 20
0.0
 30
0.0
  9
$UCSYDIR
 10
0.0
 20
1.0
 30
0.0
  9
$PUCSNAME
  2

  9
$PUCSORG
 10
0.0
 20
0.0
 30
0.0
  9
$PUCSXDIR
 10
1.0
 20
0.0
 30
0.0
  9
$PUCSYDIR
 10
0.0
 20
1.0
 30
0.0
  9
$USERI1
 70
     0
  9
$USERI2
 70
     0
  9
$USERI3
 70
     0
  9
$USERI4
 70
     0
  9
$USERI5
 70
     0
  9
$USERR1
 40
0.0
  9
$USERR2
 40
0.0
  9
$USERR3
 40
0.0
  9
$USERR4
 40
0.0
  9
$USERR5
 40
0.0
  9
$WORLDVIEW
 70
     1
  9
$SHADEDGE
 70
     3
  9
$SHADEDIF
 70
    70
  9
$TILEMODE
 70
     1
  9
$MAXACTVP
 70
    64
  9
$PLIMCHECK
 70
     0
  9
$PEXTMIN
 10
1.000000000000000E+20
 20
1.000000000000000E+20
 30
1.000000000000000E+20
  9
$PEXTMAX
 10
-1.000000000000000E+20
 20
-1.000000000000000E+20
 30
-1.000000000000000E+20
  9
$PLIMMIN
 10
-20.0
 20
-7.5
  9
$PLIMMAX
 10
277.0
 20
202.5
  9
$UNITMODE
 70
     0
  9
$VISRETAIN
 70
     1
  9
$PLINEGEN
 70
     0
  9
$PSLTSCALE
 70
     1
  0
ENDSEC
  0
SECTION
  2
TABLES
  0
TABLE
  2
VPORT
 70
     1
  0
VPORT
  2
*ACTIVE
 70
     0
 10
0.0
 20
0.0
 11
1.0
 21
1.0
 12
1165.233754371685
 22
-1768.7511782531
 13
0.0
 23
0.0
 14
0.5
 24
0.5
 15
0.5
 25
0.5
 16
0.0
 26
0.0
 36
1.0
 17
0.0
 27
0.0
 37
0.0
 40
7467.434033269264
 41
1.37843935154586
 42
2000.0
 43
0.0
 44
0.0
 50
0.0
 51
0.0
 71
     0
 72
   100
 73
     1
 74
     3
 75
     0
 76
     0
 77
     0
 78
     0
  0
ENDTAB
  0
TABLE
  2
LTYPE
 70
    25
  0
LTYPE
  2
CONTINUOUS
 70
     0
  3
Solid line
 72
    65
 73
     0
 40
0.0
  0
LTYPE
  2
______-1
 70
     0
  3

 72
    65
 73
     4
 40
0.1333333333333333
 49
0.0833333333333333
 49
-0.0166666666666667
 49
0.0166666666666667
 49
-0.0166666666666667
  0
LTYPE
  2
______-2
 70
     0
  3

 72
    65
 73
     2
 40
3.527691650390625
 49
2.469229125976562
 49
-1.058462524414062
  0
LTYPE
  2
______-3
 70
     0
  3

 72
    65
 73
     2
 40
6.35
 49
5.291537475585937
 49
-1.058462524414062
  0
LTYPE
  2
______-4
 70
     0
  3

 72
    65
 73
     2
 40
7.7607666015625
 49
6.702691650390625
 49
-1.058074951171875
  0
LTYPE
  2
______-5
 70
     0
  3

 72
    65
 73
     2
 40
1.058074951171875
 49
0.352691650390625
 49
-0.70538330078125
  0
LTYPE
  2
______-6
 70
     0
  3

 72
    65
 73
     4
 40
5.291537475585937
 49
3.175
 49
-1.058074951171875
 49
0.352691650390625
 49
-0.7057708740234374
  0
LTYPE
  2
______-7
 70
     0
  3

 72
    65
 73
     6
 40
9.524999999999999
 49
3.175
 49
-1.058074951171875
 49
3.175
 49
-1.058462524414062
 49
0.352691650390625
 49
-0.7057708740234374
  0
LTYPE
  2
______-8
 70
     0
  3

 72
    65
 73
     6
 40
6.35
 49
3.175
 49
-1.058074951171875
 49
0.352691650390625
 49
-0.7057708740234374
 49
0.352691650390625
 49
-0.7057708740234374
  0
LTYPE
  2
______-9
 70
     0
  3

 72
    65
 73
     4
 40
25.4
 49
19.05
 49
-1.411154174804687
 49
3.527691650390625
 49
-1.411154174804687
  0
LTYPE
  2
______-10
 70
     0
  3

 72
    65
 73
     6
 40
30.1625
 49
19.05
 49
-1.411154174804687
 49
3.527691650390625
 49
-1.411154174804687
 49
3.175
 49
-1.5875
  0
LTYPE
  2
______-11
 70
     0
  3

 72
    65
 73
     4
 40
11.99461669921875
 49
8.113845825195312
 49
-1.411154174804687
 49
1.058462524414062
 49
-1.411154174804687
  0
LTYPE
  2
______-12
 70
     0
  3

 72
    65
 73
     4
 40
9.172308349609375
 49
6.35
 49
-1.058462524414062
 49
0.70538330078125
 49
-1.058462524414062
  0
LTYPE
  2
______-13
 70
     0
  3

 72
    65
 73
     4
 40
2.3998548
 49
1.4999088
 49
-0.2999820000000001
 49
0.2999820000000001
 49
-0.2999820000000001
  0
LTYPE
  2
______-14
 70
     0
  3

 72
    65
 73
     2
 40
1.905
 49
1.27
 49
-0.635
  0
LTYPE
  2
______-15
 70
     0
  3

 72
    65
 73
     2
 40
0.9000000000000001
 49
0.7200000000000001
 49
-0.18
  0
LTYPE
  2
______-16
 70
     0
  3

 72
    65
 73
     4
 40
1.6933851
 49
1.1641149
 49
-0.2117313
 49
0.1058076
 49
-0.2117313
  0
LTYPE
  2
______-17
 70
     0
  3

 72
    65
 73
     2
 40
1.5
 49
0.9999999999999999
 49
-0.4999999999999999
  0
LTYPE
  2
______-18
 70
     0
  3

 72
    65
 73
     6
 40
3.999999999999999
 49
1.5
 49
-0.4999999999999999
 49
0.4999999999999998
 49
-0.4999999999999998
 49
0.4999999999999998
 49
-0.4999999999999998
  0
LTYPE
  2
______-19
 70
     0
  3

 72
    65
 73
     4
 40
0.3
 49
0.15
 49
-0.05
 49
0.05
 49
-0.05
  0
LTYPE
  2
______-20
 70
     0
  3

 72
    65
 73
     2
 40
0.15
 49
0.1
 49
-0.05
  0
LTYPE
  2
______-21
 70
     0
  3

 72
    65
 73
     4
 40
3.0
 49
1.5
 49
-0.4999999999999999
 49
0.4999999999999998
 49
-0.4999999999999998
  0
LTYPE
  2
______-22
 70
     0
  3

 72
    65
 73
     2
 40
0.125
 49
0.00254
 49
-0.12246
  0
LTYPE
  2
______-23
 70
     0
  3

 72
    65
 73
     4
 40
0.4999999999999999
 49
0.25
 49
-0.125
 49
0.00254
 49
-0.12246
  0
LTYPE
  2
______-24
 70
     0
  3

 72
    65
 73
     4
 40
2.8575
 49
1.905
 49
-0.3174999999999999
 49
0.3174999999999999
 49
-0.3174999999999999
  0
ENDTAB
  0
TABLE
  2
LAYER
 70
    46
  0
LAYER
  2
0
 70
     0
 62
     7
  6
CONTINUOUS
  0
LAYER
  2
__
 70
     0
 62
     7
  6
CONTINUOUS
  0
LAYER
  2
__-1
 70
     0
 62
     7
  6
CONTINUOUS
  0
LAYER
  2
CENTER
 70
     0
 62
     1
  6
CONTINUOUS
  0
LAYER
  2
FRAME
 70
     0
 62
     7
  6
CONTINUOUS
  0
ENDTAB
  0
TABLE
  2
STYLE
 70
     3
  0
STYLE
  2
STANDARD
 70
     0
 40
0.0
 41
1.0
 50
0.0
 71
     0
 42
0.2
  3
txt
  4
BIGFONT.SHX
  0
STYLE
  2
MS_UI_GOTHIC
 70
     0
 40
0.0
 41
1.0
 50
0.0
 71
     0
 42
0.2
  3

  4
MS UI Gothic
  0
STYLE
  2
HGP________UB
 70
     0
 40
0.0
 41
1.0
 50
0.0
 71
     0
 42
0.2
  3

  4
HGP創英角ｺﾞｼｯｸUB
  0
ENDTAB
  0
TABLE
  2
VIEW
 70
     0
  0
ENDTAB
  0
TABLE
  2
UCS
 70
     0
  0
ENDTAB
  0
TABLE
  2
APPID
 70
     3
  0
APPID
  2
ACAD
 70
     0
  0
APPID
  2
ACCMTRANSPARENCY
 70
     0
  0
APPID
  2
ACAECLAYERSTANDARD
 70
     0
  0
ENDTAB
  0
TABLE
  2
DIMSTYLE
 70
     1
  0
DIMSTYLE
  2
STANDARD
 70
     0
  3

  4

  5

  6

  7

 40
1.0
 41
0.18
 42
0.0625
 43
0.38
 44
0.18
 45
0.0
 46
0.0
 47
0.0
 48
0.0
140
0.18
141
0.09
142
0.0
143
25.4
144
1.0
145
0.0
146
1.0
147
0.09
 71
     0
 72
     0
 73
     1
 74
     1
 75
     0
 76
     0
 77
     0
 78
     0
170
     0
171
     2
172
     0
173
     0
174
     0
175
     0
176
     0
177
     0
178
     0
  0
ENDTAB
  0
ENDSEC
  0
SECTION
  2
BLOCKS
  0
BLOCK
  8
0
  2
$MODEL_SPACE
 70
     0
 10
0.0
 20
0.0
 30
0.0
  3
$MODEL_SPACE
  1

  0
ENDBLK
  5
21
  8
0
  0
BLOCK
 67
     1
  8
0
  2
$PAPER_SPACE
 70
     0
 10
0.0
 20
0.0
 30
0.0
  3
$PAPER_SPACE
  1

  0
ENDBLK
  5
1D
 67
     1
  8
0
  0
BLOCK
  8
0
  2
*X1
 70
     1
 10
0.0
 20
0.0
 30
0.0
  3
*X1
  1

  0
LINE
  5
118
  8
0
  6
CONTINUOUS
 62
     2
 10
2471.555739692324
 20
4422.506789766063
 30
0.0
 11
2498.854636910854
 21
4449.805686984592
 31
0.0
  0
LINE
  5
119
  8
0
  6
CONTINUOUS
 62
     2
 10
2408.37147211125
 20
4538.927644606372
 30
0.0
 11
2429.094966173272
 21
4559.651138668395
 31
0.0
  0
LINE
  5
11A
  8
0
  6
CONTINUOUS
 62
     2
 10
2408.37147211125
 20
4449.125083395681
 30
0.0
 11
2463.974801542063
 21
4504.728412826494
 31
0.0
  0
ENDBLK
  5
60
  8
0
  0
BLOCK
  8
0
  2
*X2
 70
     1
 10
0.0
 20
0.0
 30
0.0
  3
*X2
  1

  0
LINE
  5
11B
  8
0
  6
CONTINUOUS
 62
     2
 10
2561.358300903016
 20
4422.506789766063
 30
0.0
 11
2593.371472111249
 21
4454.519960974297
 31
0.0
  0
LINE
  5
11C
  8
0
  6
CONTINUOUS
 62
     2
 10
2429.094966173274
 20
4559.651138668396
 30
0.0
 11
2491.95061727094
 21
4622.506789766062
 31
0.0
  0
LINE
  5
11D
  8
0
  6
CONTINUOUS
 62
     2
 10
2463.974801542064
 20
4504.728412826495
 30
0.0
 11
2581.753178481632
 21
4622.506789766062
 31
0.0
  0
LINE
  5
11E
  8
0
  6
CONTINUOUS
 62
     2
 10
2498.854636910854
 20
4449.805686984592
 30
0.0
 11
2593.37147211125
 21
4544.322522184988
 31
0.0
  0
ENDBLK
  5
63
  8
0
  0
BLOCK
  8
0
  2
*X3
 70
     1
 10
0.0
 20
0.0
 30
0.0
  3
*X3
  1

  0
LINE
  5
11F
  8
0
  6
CONTINUOUS
 62
     2
 10
2568.614307648435
 20
4339.96023530079
 30
0.0
 11
2593.371472111249
 21
4364.717399763605
 31
0.0
  0
LINE
  5
120
  8
0
  6
CONTINUOUS
 62
     2
 10
2533.734472279644
 20
4394.882961142692
 30
0.0
 11
2561.358300903015
 21
4422.506789766063
 31
0.0
  0
ENDBLK
  5
66
  8
0
  0
BLOCK
  8
0
  2
*X4
 70
     1
 10
0.0
 20
0.0
 30
0.0
  3
*X4
  1

  0
LINE
  5
121
  8
0
  6
CONTINUOUS
 62
     2
 10
2580.76598453509
 20
4172.506789766063
 30
0.0
 11
2593.371472111249
 21
4185.112277342222
 31
0.0
  0
LINE
  5
122
  8
0
  6
CONTINUOUS
 62
     2
 10
2408.371472111249
 20
4359.322522184989
 30
0.0
 11
2471.555739692323
 21
4422.506789766063
 31
0.0
  0
LINE
  5
123
  8
0
  6
CONTINUOUS
 62
     2
 10
2408.371472111249
 20
4269.519960974297
 30
0.0
 11
2533.734472279644
 21
4394.882961142693
 31
0.0
  0
LINE
  5
124
  8
0
  6
CONTINUOUS
 62
     2
 10
2408.371472111249
 20
4179.717399763605
 30
0.0
 11
2568.614307648435
 21
4339.960235300791
 31
0.0
  0
LINE
  5
125
  8
0
  6
CONTINUOUS
 62
     2
 10
2490.963423324399
 20
4172.506789766063
 30
0.0
 11
2593.371472111249
 21
4274.914838552914
 31
0.0
  0
ENDBLK
  5
69
  8
0
  0
BLOCK
  8
0
  2
*X5
 70
     1
 10
0.0
 20
0.0
 30
0.0
  3
*X5
  1

  0
LINE
  5
126
  8
0
  6
CONTINUOUS
 62
     2
 10
2510.371106956474
 20
3922.506789766064
 30
0.0
 11
2517.618860822156
 21
3929.754543631745
 31
0.0
  0
LINE
  5
127
  8
0
  6
CONTINUOUS
 62
     2
 10
2408.371472111249
 20
4089.914838552913
 30
0.0
 11
2490.963423324399
 21
4172.506789766063
 31
0.0
  0
LINE
  5
128
  8
0
  6
CONTINUOUS
 62
     2
 10
2408.371472111249
 20
4000.112277342221
 30
0.0
 11
2580.76598453509
 21
4172.506789766062
 31
0.0
  0
LINE
  5
129
  8
0
  6
CONTINUOUS
 62
     2
 10
2420.568545745783
 20
3922.506789766064
 30
0.0
 11
2593.371472111249
 21
4095.30971613153
 31
0.0
  0
ENDBLK
  5
6C
  8
0
  0
BLOCK
  8
0
  2
*X6
 70
     1
 10
0.0
 20
0.0
 30
0.0
  3
*X6
  1

  0
LINE
  5
12A
  8
0
  6
CONTINUOUS
 62
     2
 10
2517.618860822158
 20
3929.754543631747
 30
0.0
 11
2593.371472111249
 21
4005.507154920838
 31
0.0
  0
ENDBLK
  5
6F
  8
0
  0
BLOCK
  8
0
  2
*X7
 70
     1
 10
0.0
 20
0.0
 30
0.0
  3
*X7
  1

  0
LINE
  5
12B
  8
0
  6
CONTINUOUS
 62
     2
 10
2584.778790588548
 20
3727.506789766063
 30
0.0
 11
2593.371472111249
 21
3736.099471288764
 31
0.0
  0
LINE
  5
12C
  8
0
  6
CONTINUOUS
 62
     2
 10
2408.371472111249
 20
3730.704593710147
 30
0.0
 11
2593.371472111249
 21
3915.704593710147
 31
0.0
  0
LINE
  5
12D
  8
0
  6
CONTINUOUS
 62
     2
 10
2494.976229377856
 20
3727.506789766062
 30
0.0
 11
2593.371472111249
 21
3825.902032499455
 31
0.0
  0
ENDBLK
  5
72
  8
0
  0
BLOCK
  8
0
  2
*X8
 70
     1
 10
0.0
 20
0.0
 30
0.0
  3
*X8
  1

  0
LINE
  5
12E
  8
0
  6
CONTINUOUS
 62
     2
 10
2408.371472111249
 20
3820.507154920839
 30
0.0
 11
2510.371106956475
 21
3922.506789766064
 31
0.0
  0
LINE
  5
12F
  8
0
  6
CONTINUOUS
 62
     2
 10
2408.371472111249
 20
3910.30971613153
 30
0.0
 11
2420.568545745783
 21
3922.506789766064
 31
0.0
  0
ENDBLK
  5
75
  8
0
  0
BLOCK
  8
0
  2
*X9
 70
     1
 10
0.0
 20
0.0
 30
0.0
  3
*X9
  1

  0
LINE
  5
130
  8
0
  6
CONTINUOUS
 62
     2
 10
2112.345494849558
 20
4422.506789766063
 30
0.0
 11
2244.442653319902
 21
4554.603948236406
 31
0.0
  0
LINE
  5
131
  8
0
  6
CONTINUOUS
 62
     2
 10
2083.371472111248
 20
4573.137889449136
 30
0.0
 11
2132.740372428174
 21
4622.506789766062
 31
0.0
  0
LINE
  5
132
  8
0
  6
CONTINUOUS
 62
     2
 10
2083.371472111249
 20
4483.335328238445
 30
0.0
 11
2222.542933638866
 21
4622.506789766062
 31
0.0
  0
ENDBLK
  5
78
  8
0
  0
BLOCK
  8
0
  2
*X10
 70
     1
 10
0.0
 20
0.0
 30
0.0
  3
*X10
  1

  0
LINE
  5
133
  8
0
  6
CONTINUOUS
 62
     2
 10
2202.148056060249
 20
4422.506789766063
 30
0.0
 11
2268.371472111249
 21
4488.730205817062
 31
0.0
  0
LINE
  5
134
  8
0
  6
CONTINUOUS
 62
     2
 10
2244.442653319902
 20
4554.603948236407
 30
0.0
 11
2268.371472111248
 21
4578.532767027753
 31
0.0
  0
ENDBLK
  5
7B
  8
0
  0
BLOCK
  8
0
  2
*X11
 70
     1
 10
0.0
 20
0.0
 30
0.0
  3
*X11
  1

  0
LINE
  5
135
  8
0
  6
CONTINUOUS
 62
     2
 10
2221.555739692324
 20
4172.506789766063
 30
0.0
 11
2268.371472111248
 21
4219.322522184987
 31
0.0
  0
LINE
  5
136
  8
0
  6
CONTINUOUS
 62
     2
 10
2088.16287147273
 20
4308.521605178545
 30
0.0
 11
2202.148056060248
 21
4422.506789766063
 31
0.0
  0
LINE
  5
137
  8
0
  6
CONTINUOUS
 62
     2
 10
2083.371472111249
 20
4213.927644606371
 30
0.0
 11
2268.371472111248
 21
4398.92764460637
 31
0.0
  0
LINE
  5
138
  8
0
  6
CONTINUOUS
 62
     2
 10
2131.753178481632
 20
4172.506789766063
 30
0.0
 11
2268.371472111248
 21
4309.125083395679
 31
0.0
  0
ENDBLK
  5
7E
  8
0
  0
BLOCK
  8
0
  2
*X12
 70
     1
 10
0.0
 20
0.0
 30
0.0
  3
*X12
  1

  0
LINE
  5
139
  8
0
  6
CONTINUOUS
 62
     2
 10
2083.371472111248
 20
4303.730205817061
 30
0.0
 11
2088.162871472727
 21
4308.52160517854
 31
0.0
  0
LINE
  5
13A
  8
0
  6
CONTINUOUS
 62
     2
 10
2083.371472111248
 20
4393.532767027753
 30
0.0
 11
2112.345494849558
 21
4422.506789766063
 31
0.0
  0
ENDBLK
  5
81
  8
0
  0
BLOCK
  8
0
  2
*X13
 70
     1
 10
0.0
 20
0.0
 30
0.0
  3
*X13
  1

  0
LINE
  5
13B
  8
0
  6
CONTINUOUS
 62
     2
 10
2240.9634233244
 20
3922.506789766064
 30
0.0
 11
2268.371472111248
 21
3949.914838552912
 31
0.0
  0
LINE
  5
13C
  8
0
  6
CONTINUOUS
 62
     2
 10
2083.371472111248
 20
4124.125083395678
 30
0.0
 11
2131.753178481633
 21
4172.506789766063
 31
0.0
  0
LINE
  5
13D
  8
0
  6
CONTINUOUS
 62
     2
 10
2089.086520968827
 20
4040.037571042565
 30
0.0
 11
2221.555739692325
 21
4172.506789766063
 31
0.0
  0
LINE
  5
13E
  8
0
  6
CONTINUOUS
 62
     2
 10
2123.966356337617
 20
3985.114845200664
 30
0.0
 11
2268.371472111248
 21
4129.519960974295
 31
0.0
  0
LINE
  5
13F
  8
0
  6
CONTINUOUS
 62
     2
 10
2158.846191706407
 20
3930.192119358762
 30
0.0
 11
2268.371472111248
 21
4039.717399763603
 31
0.0
  0
ENDBLK
  5
84
  8
0
  0
BLOCK
  8
0
  2
*X14
 70
     1
 10
0.0
 20
0.0
 30
0.0
  3
*X14
  1

  0
LINE
  5
140
  8
0
  6
CONTINUOUS
 62
     2
 10
2151.160862113707
 20
3922.506789766062
 30
0.0
 11
2158.846191706406
 21
3930.192119358762
 31
0.0
  0
LINE
  5
141
  8
0
  6
CONTINUOUS
 62
     2
 10
2083.371472111249
 20
4034.322522184987
 30
0.0
 11
2089.086520968825
 21
4040.037571042563
 31
0.0
  0
LINE
  5
142
  8
0
  6
CONTINUOUS
 62
     2
 10
2083.371472111249
 20
3944.519960974296
 30
0.0
 11
2123.966356337616
 21
3985.114845200662
 31
0.0
  0
ENDBLK
  5
87
  8
0
  0
BLOCK
  8
0
  2
*X15
 70
     1
 10
0.0
 20
0.0
 30
0.0
  3
*X15
  1

  0
LINE
  5
143
  8
0
  6
CONTINUOUS
 62
     2
 10
2225.568545745781
 20
3727.506789766062
 30
0.0
 11
2263.485697812777
 21
3765.423941833058
 31
0.0
  0
LINE
  5
144
  8
0
  6
CONTINUOUS
 62
     2
 10
2083.371472111249
 20
3854.717399763604
 30
0.0
 11
2151.160862113709
 21
3922.506789766064
 31
0.0
  0
LINE
  5
145
  8
0
  6
CONTINUOUS
 62
     2
 10
2083.371472111249
 20
3764.914838552912
 30
0.0
 11
2193.726027075197
 21
3875.26939351686
 31
0.0
  0
LINE
  5
146
  8
0
  6
CONTINUOUS
 62
     2
 10
2135.76598453509
 20
3727.506789766062
 30
0.0
 11
2228.605862443987
 21
3820.346667674959
 31
0.0
  0
ENDBLK
  5
8A
  8
0
  0
BLOCK
  8
0
  2
*X16
 70
     1
 10
0.0
 20
0.0
 30
0.0
  3
*X16
  1

  0
LINE
  5
147
  8
0
  6
CONTINUOUS
 62
     2
 10
2263.485697812778
 20
3765.423941833058
 30
0.0
 11
2268.371472111249
 21
3770.30971613153
 31
0.0
  0
LINE
  5
148
  8
0
  6
CONTINUOUS
 62
     2
 10
2193.726027075197
 20
3875.26939351686
 30
0.0
 11
2240.963423324401
 21
3922.506789766064
 31
0.0
  0
LINE
  5
149
  8
0
  6
CONTINUOUS
 62
     2
 10
2228.605862443987
 20
3820.346667674959
 30
0.0
 11
2268.371472111248
 21
3860.11227734222
 31
0.0
  0
ENDBLK
  5
8D
  8
0
  0
BLOCK
  8
0
  2
*X17
 70
     1
 10
0.0
 20
0.0
 30
0.0
  3
*X17
  1

  0
LINE
  5
14A
  8
0
  6
CONTINUOUS
 62
     2
 10
5432.143715943567
 20
2524.248030372679
 30
0.0
 11
5432.143715943567
 21
2727.473430372679
 31
0.0
  0
LINE
  5
14B
  8
0
  6
CONTINUOUS
 62
     2
 10
5363.225058838165
 20
4759.727430372678
 30
0.0
 11
5563.225058838165
 21
4759.727430372678
 31
0.0
  0
LINE
  5
14C
  8
0
  6
CONTINUOUS
 62
     2
 10
5363.225058838165
 20
4556.502030372678
 30
0.0
 11
5563.225058838165
 21
4556.502030372678
 31
0.0
  0
LINE
  5
14D
  8
0
  6
CONTINUOUS
 62
     2
 10
5363.225058838165
 20
4353.276630372678
 30
0.0
 11
5563.225058838165
 21
4353.276630372678
 31
0.0
  0
LINE
  5
14E
  8
0
  6
CONTINUOUS
 62
     2
 10
5363.225058838165
 20
4150.051230372677
 30
0.0
 11
5563.225058838165
 21
4150.051230372677
 31
0.0
  0
LINE
  5
14F
  8
0
  6
CONTINUOUS
 62
     2
 10
5363.225058838165
 20
3946.825830372677
 30
0.0
 11
5563.225058838165
 21
3946.825830372677
 31
0.0
  0
LINE
  5
150
  8
0
  6
CONTINUOUS
 62
     2
 10
5363.225058838165
 20
3743.600430372677
 30
0.0
 11
5563.225058838165
 21
3743.600430372677
 31
0.0
  0
LINE
  5
151
  8
0
  6
CONTINUOUS
 62
     2
 10
5363.225058838165
 20
3540.375030372677
 30
0.0
 11
5563.225058838165
 21
3540.375030372677
 31
0.0
  0
LINE
  5
152
  8
0
  6
CONTINUOUS
 62
     2
 10
5363.225058838165
 20
3337.149630372678
 30
0.0
 11
5563.225058838165
 21
3337.149630372678
 31
0.0
  0
LINE
  5
153
  8
0
  6
CONTINUOUS
 62
     2
 10
5363.225058838165
 20
3133.924230372678
 30
0.0
 11
5563.225058838165
 21
3133.924230372678
 31
0.0
  0
LINE
  5
154
  8
0
  6
CONTINUOUS
 62
     2
 10
5363.225058838165
 20
2930.698830372678
 30
0.0
 11
5563.225058838165
 21
2930.698830372678
 31
0.0
  0
LINE
  5
155
  8
0
  6
CONTINUOUS
 62
     2
 10
5363.225058838165
 20
2727.473430372678
 30
0.0
 11
5563.225058838165
 21
2727.473430372678
 31
0.0
  0
LINE
  5
156
  8
0
  6
CONTINUOUS
 62
     2
 10
5363.225058838165
 20
2524.248030372678
 30
0.0
 11
5563.225058838165
 21
2524.248030372678
 31
0.0
  0
LINE
  5
157
  8
0
  6
CONTINUOUS
 62
     2
 10
5432.143715943567
 20
4556.502030372679
 30
0.0
 11
5432.143715943567
 21
4759.727430372679
 31
0.0
  0
LINE
  5
158
  8
0
  6
CONTINUOUS
 62
     2
 10
5432.143715943567
 20
4150.051230372679
 30
0.0
 11
5432.143715943567
 21
4353.276630372679
 31
0.0
  0
LINE
  5
159
  8
0
  6
CONTINUOUS
 62
     2
 10
5432.143715943567
 20
3743.600430372679
 30
0.0
 11
5432.143715943567
 21
3946.825830372679
 31
0.0
  0
LINE
  5
15A
  8
0
  6
CONTINUOUS
 62
     2
 10
5432.143715943567
 20
3337.149630372679
 30
0.0
 11
5432.143715943567
 21
3540.375030372679
 31
0.0
  0
LINE
  5
15B
  8
0
  6
CONTINUOUS
 62
     2
 10
5432.143715943567
 20
2930.698830372679
 30
0.0
 11
5432.143715943567
 21
3133.924230372679
 31
0.0
  0
ENDBLK
  5
90
  8
0
  0
BLOCK
  8
0
  2
*X18
 70
     1
 10
0.0
 20
0.0
 30
0.0
  3
*X18
  1

  0
LINE
  5
15C
  8
0
  6
CONTINUOUS
 62
     2
 10
6346.543715943568
 20
2472.506789766063
 30
0.0
 11
6346.543715943568
 21
2524.248030372679
 31
0.0
  0
LINE
  5
15D
  8
0
  6
CONTINUOUS
 62
     2
 10
6241.761861850296
 20
4759.727430372678
 30
0.0
 11
6441.761861850297
 21
4759.727430372678
 31
0.0
  0
LINE
  5
15E
  8
0
  6
CONTINUOUS
 62
     2
 10
6241.761861850296
 20
4556.502030372678
 30
0.0
 11
6441.761861850297
 21
4556.502030372678
 31
0.0
  0
LINE
  5
15F
  8
0
  6
CONTINUOUS
 62
     2
 10
6241.761861850296
 20
4353.276630372678
 30
0.0
 11
6441.761861850297
 21
4353.276630372678
 31
0.0
  0
LINE
  5
160
  8
0
  6
CONTINUOUS
 62
     2
 10
6241.761861850296
 20
4150.051230372677
 30
0.0
 11
6441.761861850296
 21
4150.051230372677
 31
0.0
  0
LINE
  5
161
  8
0
  6
CONTINUOUS
 62
     2
 10
6241.761861850296
 20
3946.825830372677
 30
0.0
 11
6441.761861850296
 21
3946.825830372677
 31
0.0
  0
LINE
  5
162
  8
0
  6
CONTINUOUS
 62
     2
 10
6241.761861850296
 20
3743.600430372677
 30
0.0
 11
6441.761861850296
 21
3743.600430372677
 31
0.0
  0
LINE
  5
163
  8
0
  6
CONTINUOUS
 62
     2
 10
6241.761861850296
 20
3540.375030372677
 30
0.0
 11
6441.761861850296
 21
3540.375030372677
 31
0.0
  0
LINE
  5
164
  8
0
  6
CONTINUOUS
 62
     2
 10
6241.761861850296
 20
3337.149630372678
 30
0.0
 11
6441.761861850296
 21
3337.149630372678
 31
0.0
  0
LINE
  5
165
  8
0
  6
CONTINUOUS
 62
     2
 10
6241.761861850296
 20
3133.924230372678
 30
0.0
 11
6441.761861850296
 21
3133.924230372678
 31
0.0
  0
LINE
  5
166
  8
0
  6
CONTINUOUS
 62
     2
 10
6241.761861850296
 20
2930.698830372678
 30
0.0
 11
6441.761861850295
 21
2930.698830372678
 31
0.0
  0
LINE
  5
167
  8
0
  6
CONTINUOUS
 62
     2
 10
6241.761861850296
 20
2727.473430372678
 30
0.0
 11
6441.761861850295
 21
2727.473430372678
 31
0.0
  0
LINE
  5
168
  8
0
  6
CONTINUOUS
 62
     2
 10
6241.761861850296
 20
2524.248030372678
 30
0.0
 11
6441.761861850295
 21
2524.248030372678
 31
0.0
  0
LINE
  5
169
  8
0
  6
CONTINUOUS
 62
     2
 10
6346.543715943568
 20
4759.727430372679
 30
0.0
 11
6346.543715943568
 21
4842.506789766063
 31
0.0
  0
LINE
  5
16A
  8
0
  6
CONTINUOUS
 62
     2
 10
6346.543715943568
 20
4353.276630372679
 30
0.0
 11
6346.543715943568
 21
4556.50203037268
 31
0.0
  0
LINE
  5
16B
  8
0
  6
CONTINUOUS
 62
     2
 10
6346.543715943568
 20
3946.825830372679
 30
0.0
 11
6346.543715943568
 21
4150.051230372679
 31
0.0
  0
LINE
  5
16C
  8
0
  6
CONTINUOUS
 62
     2
 10
6346.543715943568
 20
3540.375030372679
 30
0.0
 11
6346.543715943568
 21
3743.600430372679
 31
0.0
  0
LINE
  5
16D
  8
0
  6
CONTINUOUS
 62
     2
 10
6346.543715943568
 20
3133.924230372679
 30
0.0
 11
6346.543715943568
 21
3337.149630372679
 31
0.0
  0
LINE
  5
16E
  8
0
  6
CONTINUOUS
 62
     2
 10
6346.543715943568
 20
2727.473430372679
 30
0.0
 11
6346.543715943568
 21
2930.698830372679
 31
0.0
  0
ENDBLK
  5
93
  8
0
  0
BLOCK
  8
0
  2
___
 70
     0
 10
0.0
 20
0.0
 30
0.0
  3
___
  1

  0
LINE
  5
16F
  8
0
  6
CONTINUOUS
 62
     0
 10
-418.679839368695
 20
-2464.918097230937
 30
0.0
 11
-268.679839368695
 21
-2464.918097230937
 31
0.0
  0
LINE
  5
170
  8
0
  6
CONTINUOUS
 62
     0
 10
-418.679839368695
 20
-2089.918097230937
 30
0.0
 11
-268.679839368695
 21
-2089.918097230937
 31
0.0
  0
LINE
  5
171
  8
0
  6
CONTINUOUS
 62
     0
 10
-268.679839368695
 20
-2464.918097230937
 30
0.0
 11
-268.679839368695
 21
-2089.918097230937
 31
0.0
  0
CIRCLE
  5
172
  8
0
  6
CONTINUOUS
 62
     0
 10
-268.679839368695
 20
-2464.918097230937
 30
0.0
 40
14.99908447265625
  0
CIRCLE
  5
173
  8
0
  6
CONTINUOUS
 62
     0
 10
-268.679839368695
 20
-2089.918097230937
 30
0.0
 40
14.99908447265625
  0
TEXT
  5
174
  8
0
 62
     0
 10
-295.4598393686949
 20
-2372.668097230937
 30
0.0
 40
87.06445312499999
  1
125
 50
90.0
  7
MS_UI_GOTHIC
 11
-382.5242924936949
 21
-2372.668097230937
 31
0.0
 73
     3
  0
ENDBLK
  5
98
  8
0
  0
BLOCK
  8
0
  2
___-1
 70
     0
 10
0.0
 20
0.0
 30
0.0
  3
___-1
  1

  0
LINE
  5
175
  8
__
  6
CONTINUOUS
 62
     0
 10
-2207.660043434049
 20
-3532.052218058298
 30
0.0
 11
-2207.660043434049
 21
-3682.052218058298
 31
0.0
  0
LINE
  5
176
  8
__
  6
CONTINUOUS
 62
     0
 10
-2132.660043434049
 20
-3532.052218058298
 30
0.0
 11
-2132.660043434049
 21
-3682.052218058298
 31
0.0
  0
LINE
  5
177
  8
__
  6
CONTINUOUS
 62
     0
 10
-2132.660043434049
 20
-3682.052218058298
 30
0.0
 11
-2207.660043434049
 21
-3682.052218058298
 31
0.0
  0
LINE
  5
178
  8
__
  6
CONTINUOUS
 62
     0
 10
-2207.660043434049
 20
-3682.052218058298
 30
0.0
 11
-2404.879104233933
 21
-3682.052218058298
 31
0.0
  0
CIRCLE
  5
179
  8
__
  6
CONTINUOUS
 62
     0
 10
-2207.660043434049
 20
-3682.052218058298
 30
0.0
 40
14.99908447265625
  0
LINE
  5
17A
  8
__
  6
CONTINUOUS
 62
     0
 10
-2132.660043434049
 20
-3682.052218058298
 30
0.0
 11
-2102.660043434049
 21
-3682.052218058298
 31
0.0
  0
CIRCLE
  5
17B
  8
__
  6
CONTINUOUS
 62
     0
 10
-2132.660043434049
 20
-3682.052218058298
 30
0.0
 40
14.99908447265625
  0
TEXT
  5
17C
  8
__
 62
     0
 10
-2404.879104233933
 20
-3655.272218058299
 30
0.0
 40
87.06445312499999
  1
25
  7
MS_UI_GOTHIC
 11
-2404.879104233933
 21
-3568.207764933299
 31
0.0
 73
     3
  0
ENDBLK
  5
9B
  8
0
  0
BLOCK
  8
0
  2
___-2
 70
     0
 10
0.0
 20
0.0
 30
0.0
  3
___-2
  1

  0
LINE
  5
17D
  8
__
  6
CONTINUOUS
 62
     0
 10
-632.6600434340489
 20
-3532.776825142286
 30
0.0
 11
-632.6600434340489
 21
-3682.776825142286
 31
0.0
  0
LINE
  5
17E
  8
__
  6
CONTINUOUS
 62
     0
 10
-557.6600434340489
 20
-3532.776825142286
 30
0.0
 11
-557.6600434340489
 21
-3682.776825142286
 31
0.0
  0
LINE
  5
17F
  8
__
  6
CONTINUOUS
 62
     0
 10
-557.6600434340489
 20
-3682.776825142286
 30
0.0
 11
-632.6600434340489
 21
-3682.776825142286
 31
0.0
  0
LINE
  5
180
  8
__
  6
CONTINUOUS
 62
     0
 10
-632.6600434340489
 20
-3682.776825142286
 30
0.0
 11
-662.6600434340489
 21
-3682.776825142286
 31
0.0
  0
CIRCLE
  5
181
  8
__
  6
CONTINUOUS
 62
     0
 10
-632.6600434340489
 20
-3682.776825142286
 30
0.0
 40
14.99908447265625
  0
LINE
  5
182
  8
__
  6
CONTINUOUS
 62
     0
 10
-557.6600434340489
 20
-3682.776825142286
 30
0.0
 11
-361.7613171603425
 21
-3682.776825142286
 31
0.0
  0
CIRCLE
  5
183
  8
__
  6
CONTINUOUS
 62
     0
 10
-557.6600434340489
 20
-3682.776825142286
 30
0.0
 40
14.99908447265625
  0
TEXT
  5
184
  8
__
 62
     0
 10
-488.7613171603425
 20
-3655.996825142286
 30
0.0
 40
87.06445312499999
  1
25
  7
MS_UI_GOTHIC
 11
-488.7613171603425
 21
-3568.932372017286
 31
0.0
 73
     3
  0
ENDBLK
  5
9E
  8
0
  0
BLOCK
  8
0
  2
___-3
 70
     0
 10
0.0
 20
0.0
 30
0.0
  3
___-3
  1

  0
LINE
  5
185
  8
0
  6
CONTINUOUS
 62
     0
 10
-562.5348933003788
 20
-2018.850968661589
 30
0.0
 11
-311.8830569376231
 21
-1744.880107731281
 31
0.0
  0
LINE
  5
186
  8
0
  6
CONTINUOUS
 62
     0
 10
-572.6600434340489
 20
-2029.918097230942
 30
0.0
 11
-562.5348933003788
 21
-2018.850968661589
 31
0.0
  0
CIRCLE
  5
187
  8
0
  6
CONTINUOUS
 62
     0
 10
-562.5348933003788
 20
-2018.850968661589
 30
0.0
 40
14.9990041585838
  0
TEXT
  5
188
  8
0
 62
     0
 10
-454.2033487354677
 20
-1860.767472546967
 30
0.0
 40
87.06445312499999
  1
R 5
 50
47.54507254137398
  7
MS_UI_GOTHIC
 11
-518.4402485057851
 21
-1801.998095267184
 31
0.0
 73
     3
  0
ENDBLK
  5
A1
  8
0
  0
BLOCK
  8
0
  2
___-4
 70
     0
 10
0.0
 20
0.0
 30
0.0
  3
___-4
  1

  0
LINE
  5
189
  8
0
  6
CONTINUOUS
 62
     0
 10
-2265.441099983504
 20
-3364.918097230937
 30
0.0
 11
-2415.441099983504
 21
-3364.918097230937
 31
0.0
  0
LINE
  5
18A
  8
0
  6
CONTINUOUS
 62
     0
 10
-2265.441099983504
 20
-3289.918097230937
 30
0.0
 11
-2415.441099983504
 21
-3289.918097230937
 31
0.0
  0
LINE
  5
18B
  8
0
  6
CONTINUOUS
 62
     0
 10
-2415.441099983504
 20
-3289.918097230937
 30
0.0
 11
-2415.441099983504
 21
-3364.918097230937
 31
0.0
  0
LINE
  5
18C
  8
0
  6
CONTINUOUS
 62
     0
 10
-2415.441099983504
 20
-3364.918097230937
 30
0.0
 11
-2415.441099983504
 21
-3536.322842737915
 31
0.0
  0
CIRCLE
  5
18D
  8
0
  6
CONTINUOUS
 62
     0
 10
-2415.441099983504
 20
-3364.918097230937
 30
0.0
 40
14.99908447265625
  0
LINE
  5
18E
  8
0
  6
CONTINUOUS
 62
     0
 10
-2415.441099983504
 20
-3289.918097230937
 30
0.0
 11
-2415.441099983504
 21
-3259.918097230937
 31
0.0
  0
CIRCLE
  5
18F
  8
0
  6
CONTINUOUS
 62
     0
 10
-2415.441099983504
 20
-3289.918097230937
 30
0.0
 40
14.99908447265625
  0
TEXT
  5
190
  8
0
 62
     0
 10
-2442.221099983503
 20
-3536.322842737915
 30
0.0
 40
87.06445312499999
  1
25
 50
90.0
  7
MS_UI_GOTHIC
 11
-2529.285553108503
 21
-3536.322842737915
 31
0.0
 73
     3
  0
ENDBLK
  5
A4
  8
0
  0
BLOCK
  8
0
  2
___-5
 70
     0
 10
0.0
 20
0.0
 30
0.0
  3
___-5
  1

  0
LINE
  5
191
  8
0
  6
CONTINUOUS
 62
     0
 10
-2265.441099983498
 20
-2089.918097230937
 30
0.0
 11
-2415.441099983498
 21
-2089.918097230937
 31
0.0
  0
LINE
  5
192
  8
0
  6
CONTINUOUS
 62
     0
 10
-2265.441099983498
 20
-2014.918097230937
 30
0.0
 11
-2415.441099983498
 21
-2014.918097230937
 31
0.0
  0
LINE
  5
193
  8
0
  6
CONTINUOUS
 62
     0
 10
-2415.441099983498
 20
-2014.918097230937
 30
0.0
 11
-2415.441099983498
 21
-2089.918097230937
 31
0.0
  0
LINE
  5
194
  8
0
  6
CONTINUOUS
 62
     0
 10
-2415.441099983498
 20
-2089.918097230937
 30
0.0
 11
-2415.441099983498
 21
-2119.918097230937
 31
0.0
  0
CIRCLE
  5
195
  8
0
  6
CONTINUOUS
 62
     0
 10
-2415.441099983498
 20
-2089.918097230937
 30
0.0
 40
14.99908447265625
  0
LINE
  5
196
  8
0
  6
CONTINUOUS
 62
     0
 10
-2415.441099983498
 20
-2014.918097230937
 30
0.0
 11
-2415.441099983498
 21
-1791.84301221603
 31
0.0
  0
CIRCLE
  5
197
  8
0
  6
CONTINUOUS
 62
     0
 10
-2415.441099983498
 20
-2014.918097230937
 30
0.0
 40
14.99908447265625
  0
TEXT
  5
198
  8
0
 62
     0
 10
-2442.221099983498
 20
-1918.84301221603
 30
0.0
 40
87.06445312499999
  1
25
 50
90.0
  7
MS_UI_GOTHIC
 11
-2529.285553108498
 21
-1918.84301221603
 31
0.0
 73
     3
  0
ENDBLK
  5
A7
  8
0
  0
BLOCK
  8
0
  2
___-6
 70
     0
 10
0.0
 20
0.0
 30
0.0
  3
___-6
  1

  0
LINE
  5
199
  8
0
  6
CONTINUOUS
 62
     0
 10
412.6233391532551
 20
-3532.776825142286
 30
0.0
 11
412.6233391532551
 21
-3682.776825142286
 31
0.0
  0
LINE
  5
19A
  8
0
  6
CONTINUOUS
 62
     0
 10
1062.256911607321
 20
-3532.776825142286
 30
0.0
 11
1062.256911607321
 21
-3682.776825142286
 31
0.0
  0
LINE
  5
19B
  8
0
  6
CONTINUOUS
 62
     0
 10
412.6233391532551
 20
-3682.776825142286
 30
0.0
 11
1062.256911607321
 21
-3682.776825142286
 31
0.0
  0
CIRCLE
  5
19C
  8
0
  6
CONTINUOUS
 62
     0
 10
412.6233391532551
 20
-3682.776825142286
 30
0.0
 40
14.99908447265625
  0
CIRCLE
  5
19D
  8
0
  6
CONTINUOUS
 62
     0
 10
1062.256911607321
 20
-3682.776825142286
 30
0.0
 40
14.99908447265625
  0
TEXT
  5
19E
  8
0
 62
     0
 10
613.8549961344971
 20
-3655.996825142286
 30
0.0
 40
87.06445312499999
  1
215
  7
MS_UI_GOTHIC
 11
613.8549961344971
 21
-3568.932372017286
 31
0.0
 73
     3
  0
ENDBLK
  5
AA
  8
0
  0
BLOCK
  8
0
  2
___-7
 70
     0
 10
0.0
 20
0.0
 30
0.0
  3
___-7
  1

  0
LINE
  5
19F
  8
__-1
  6
CONTINUOUS
 62
     0
 10
-2265.441099983504
 20
-3289.918097230937
 30
0.0
 11
-2415.441099983504
 21
-3289.918097230937
 31
0.0
  0
LINE
  5
1A0
  8
__-1
  6
CONTINUOUS
 62
     0
 10
-2265.441099983504
 20
-2089.918097230937
 30
0.0
 11
-2415.441099983504
 21
-2089.918097230937
 31
0.0
  0
LINE
  5
1A1
  8
__-1
  6
CONTINUOUS
 62
     0
 10
-2415.441099983504
 20
-3289.918097230937
 30
0.0
 11
-2415.441099983504
 21
-2089.918097230937
 31
0.0
  0
CIRCLE
  5
1A2
  8
__-1
  6
CONTINUOUS
 62
     0
 10
-2415.441099983504
 20
-3289.918097230937
 30
0.0
 40
14.99908447265625
  0
CIRCLE
  5
1A3
  8
__-1
  6
CONTINUOUS
 62
     0
 10
-2415.441099983504
 20
-2089.918097230937
 30
0.0
 40
14.99908447265625
  0
TEXT
  5
1A4
  8
__-1
 62
     0
 10
-2442.221099983503
 20
-2785.168097230937
 30
0.0
 40
87.06445312499999
  1
400
 50
90.0
  7
MS_UI_GOTHIC
 11
-2529.285553108503
 21
-2785.168097230937
 31
0.0
 73
     3
  0
ENDBLK
  5
AD
  8
0
  0
BLOCK
  8
0
  2
___-8
 70
     0
 10
0.0
 20
0.0
 30
0.0
  3
___-8
  1

  0
LINE
  5
1A5
  8
__-1
  6
______-24
 62
     0
 10
-2496.192439730878
 20
-3364.918097230942
 30
0.0
 11
-2646.192439730878
 21
-3364.918097230942
 31
0.0
  0
LINE
  5
1A6
  8
__-1
  6
______-24
 62
     0
 10
-2496.192439730878
 20
-2014.918097230937
 30
0.0
 11
-2646.192439730878
 21
-2014.918097230937
 31
0.0
  0
LINE
  5
1A7
  8
__-1
  6
______-24
 62
     0
 10
-2646.192439730878
 20
-3364.918097230942
 30
0.0
 11
-2646.192439730878
 21
-2014.918097230937
 31
0.0
  0
CIRCLE
  5
1A8
  8
__-1
  6
______-24
 62
     0
 10
-2646.192439730878
 20
-3364.918097230942
 30
0.0
 40
14.99908447265625
  0
CIRCLE
  5
1A9
  8
__-1
  6
______-24
 62
     0
 10
-2646.192439730878
 20
-2014.918097230937
 30
0.0
 40
14.99908447265625
  0
TEXT
  5
1AA
  8
__-1
 62
     0
 10
-2672.972439730877
 20
-2785.16809723094
 30
0.0
 40
87.06445312499999
  1
450
 50
90.0
  7
MS_UI_GOTHIC
 11
-2760.036892855877
 21
-2785.16809723094
 31
0.0
 73
     3
  0
ENDBLK
  5
B0
  8
0
  0
BLOCK
  8
0
  2
___-9
 70
     0
 10
0.0
 20
0.0
 30
0.0
  3
___-9
  1

  0
LINE
  5
1AB
  8
__-1
  6
CONTINUOUS
 62
     0
 10
-2132.660043434049
 20
-3532.776825142286
 30
0.0
 11
-2132.660043434049
 21
-3682.776825142286
 31
0.0
  0
LINE
  5
1AC
  8
__-1
  6
CONTINUOUS
 62
     0
 10
-632.6600434340489
 20
-3532.776825142286
 30
0.0
 11
-632.6600434340489
 21
-3682.776825142286
 31
0.0
  0
LINE
  5
1AD
  8
__-1
  6
CONTINUOUS
 62
     0
 10
-2132.660043434049
 20
-3682.776825142286
 30
0.0
 11
-632.6600434340489
 21
-3682.776825142286
 31
0.0
  0
CIRCLE
  5
1AE
  8
__-1
  6
CONTINUOUS
 62
     0
 10
-2132.660043434049
 20
-3682.776825142286
 30
0.0
 40
14.99908447265625
  0
CIRCLE
  5
1AF
  8
__-1
  6
CONTINUOUS
 62
     0
 10
-632.6600434340489
 20
-3682.776825142286
 30
0.0
 40
14.99908447265625
  0
TEXT
  5
1B0
  8
__-1
 62
     0
 10
-1477.910043434049
 20
-3655.996825142286
 30
0.0
 40
87.06445312499999
  1
500
  7
MS_UI_GOTHIC
 11
-1477.910043434049
 21
-3568.932372017286
 31
0.0
 73
     3
  0
ENDBLK
  5
B3
  8
0
  0
BLOCK
  8
0
  2
___-10
 70
     0
 10
0.0
 20
0.0
 30
0.0
  3
___-10
  1

  0
LINE
  5
1B1
  8
__-1
  6
CONTINUOUS
 62
     0
 10
-2207.660043434049
 20
-3802.84301221603
 30
0.0
 11
-2207.660043434049
 21
-3952.84301221603
 31
0.0
  0
LINE
  5
1B2
  8
__-1
  6
CONTINUOUS
 62
     0
 10
-557.6600434340489
 20
-3802.84301221603
 30
0.0
 11
-557.6600434340489
 21
-3952.84301221603
 31
0.0
  0
LINE
  5
1B3
  8
__-1
  6
CONTINUOUS
 62
     0
 10
-2207.660043434049
 20
-3952.84301221603
 30
0.0
 11
-557.6600434340489
 21
-3952.84301221603
 31
0.0
  0
CIRCLE
  5
1B4
  8
__-1
  6
CONTINUOUS
 62
     0
 10
-2207.660043434049
 20
-3952.84301221603
 30
0.0
 40
14.99908447265625
  0
CIRCLE
  5
1B5
  8
__-1
  6
CONTINUOUS
 62
     0
 10
-557.6600434340489
 20
-3952.84301221603
 30
0.0
 40
14.99908447265625
  0
TEXT
  5
1B6
  8
__-1
 62
     0
 10
-1477.910043434049
 20
-3926.06301221603
 30
0.0
 40
87.06445312499999
  1
550
  7
MS_UI_GOTHIC
 11
-1477.910043434049
 21
-3838.99855909103
 31
0.0
 73
     3
  0
ENDBLK
  5
B6
  8
0
  0
BLOCK
  8
0
  2
___-11
 70
     0
 10
0.0
 20
0.0
 30
0.0
  3
___-11
  1

  0
LINE
  5
1B7
  8
__-1
  6
CONTINUOUS
 62
     0
 10
1062.256911607321
 20
-3532.776825142286
 30
0.0
 11
1062.256911607321
 21
-3682.776825142286
 31
0.0
  0
LINE
  5
1B8
  8
__-1
  6
CONTINUOUS
 62
     0
 10
1077.256911607321
 20
-3532.776825142286
 30
0.0
 11
1077.256911607321
 21
-3682.776825142286
 31
0.0
  0
LINE
  5
1B9
  8
__-1
  6
CONTINUOUS
 62
     0
 10
1077.256911607321
 20
-3682.776825142286
 30
0.0
 11
1062.256911607321
 21
-3682.776825142286
 31
0.0
  0
LINE
  5
1BA
  8
__-1
  6
CONTINUOUS
 62
     0
 10
1062.256911607321
 20
-3682.776825142286
 30
0.0
 11
1032.256911607321
 21
-3682.776825142286
 31
0.0
  0
CIRCLE
  5
1BB
  8
__-1
  6
CONTINUOUS
 62
     0
 10
1062.256911607321
 20
-3682.776825142286
 30
0.0
 40
14.99908447265625
  0
LINE
  5
1BC
  8
__-1
  6
CONTINUOUS
 62
     0
 10
1077.256911607321
 20
-3682.776825142286
 30
0.0
 11
1170.756911607321
 21
-3682.776825142286
 31
0.0
  0
CIRCLE
  5
1BD
  8
__-1
  6
CONTINUOUS
 62
     0
 10
1077.256911607321
 20
-3682.776825142286
 30
0.0
 40
14.99908447265625
  0
TEXT
  5
1BE
  8
__-1
 62
     0
 10
1107.256911607321
 20
-3655.996825142286
 30
0.0
 40
87.06445312499999
  1
5
  7
MS_UI_GOTHIC
 11
1107.256911607321
 21
-3568.932372017286
 31
0.0
 73
     3
  0
ENDBLK
  5
B9
  8
0
  0
BLOCK
  8
0
  2
___-12
 70
     0
 10
0.0
 20
0.0
 30
0.0
  3
___-12
  1

  0
LINE
  5
1BF
  8
__-1
  6
CONTINUOUS
 62
     0
 10
412.6233391532551
 20
-3802.84301221603
 30
0.0
 11
412.6233391532551
 21
-3952.84301221603
 31
0.0
  0
LINE
  5
1C0
  8
__-1
  6
CONTINUOUS
 62
     0
 10
1072.566279937193
 20
-3802.84301221603
 30
0.0
 11
1072.566279937193
 21
-3952.84301221603
 31
0.0
  0
LINE
  5
1C1
  8
__-1
  6
CONTINUOUS
 62
     0
 10
412.6233391532551
 20
-3952.84301221603
 30
0.0
 11
1072.566279937193
 21
-3952.84301221603
 31
0.0
  0
CIRCLE
  5
1C2
  8
__-1
  6
CONTINUOUS
 62
     0
 10
412.6233391532551
 20
-3952.84301221603
 30
0.0
 40
14.99908447265625
  0
CIRCLE
  5
1C3
  8
__-1
  6
CONTINUOUS
 62
     0
 10
1072.566279937193
 20
-3952.84301221603
 30
0.0
 40
14.99908447265625
  0
TEXT
  5
1C4
  8
__-1
 62
     0
 10
647.344809545224
 20
-3926.06301221603
 30
0.0
 40
87.06445312499999
  1
220
  7
MS_UI_GOTHIC
 11
647.344809545224
 21
-3838.99855909103
 31
0.0
 73
     3
  0
ENDBLK
  5
BC
  8
0
  0
BLOCK
  8
0
  2
___-13
 70
     0
 10
0.0
 20
0.0
 30
0.0
  3
___-13
  1

  0
LINE
  5
1C5
  8
__-1
  6
CONTINUOUS
 62
     0
 10
1090.623339153255
 20
-1882.84301221603
 30
0.0
 11
1090.623339153255
 21
-1732.84301221603
 31
0.0
  0
LINE
  5
1C6
  8
__-1
  6
CONTINUOUS
 62
     0
 10
1072.623339153255
 20
-1882.84301221603
 30
0.0
 11
1072.623339153255
 21
-1732.84301221603
 31
0.0
  0
LINE
  5
1C7
  8
__-1
  6
CONTINUOUS
 62
     0
 10
1072.623339153255
 20
-1732.84301221603
 30
0.0
 11
1090.623339153255
 21
-1732.84301221603
 31
0.0
  0
LINE
  5
1C8
  8
__-1
  6
CONTINUOUS
 62
     0
 10
1090.623339153255
 20
-1732.84301221603
 30
0.0
 11
1060.623339153255
 21
-1732.84301221603
 31
0.0
  0
CIRCLE
  5
1C9
  8
__-1
  6
CONTINUOUS
 62
     0
 10
1090.623339153255
 20
-1732.84301221603
 30
0.0
 40
14.99908447265625
  0
LINE
  5
1CA
  8
__-1
  6
CONTINUOUS
 62
     0
 10
1072.623339153255
 20
-1732.84301221603
 30
0.0
 11
1233.332639000186
 21
-1732.84301221603
 31
0.0
  0
CIRCLE
  5
1CB
  8
__-1
  6
CONTINUOUS
 62
     0
 10
1072.623339153255
 20
-1732.84301221603
 30
0.0
 40
14.99908447265625
  0
TEXT
  5
1CC
  8
__-1
 62
     0
 10
1169.832639000185
 20
-1706.06301221603
 30
0.0
 40
87.06445312499999
  1
6
  7
MS_UI_GOTHIC
 11
1169.832639000185
 21
-1618.99855909103
 31
0.0
 73
     3
  0
ENDBLK
  5
BF
  8
0
  0
BLOCK
  8
0
  2
___-14
 70
     0
 10
0.0
 20
0.0
 30
0.0
  3
___-14
  1

  0
LINE
  5
1CD
  8
__-1
  6
CONTINUOUS
 62
     0
 10
1072.623339153255
 20
-1882.843012216028
 30
0.0
 11
1072.623339153255
 21
-1732.843012216028
 31
0.0
  0
LINE
  5
1CE
  8
__-1
  6
CONTINUOUS
 62
     0
 10
412.6233391532551
 20
-1882.843012216028
 30
0.0
 11
412.6233391532551
 21
-1732.843012216028
 31
0.0
  0
LINE
  5
1CF
  8
__-1
  6
CONTINUOUS
 62
     0
 10
1072.623339153255
 20
-1732.843012216028
 30
0.0
 11
412.6233391532551
 21
-1732.843012216028
 31
0.0
  0
CIRCLE
  5
1D0
  8
__-1
  6
CONTINUOUS
 62
     0
 10
1072.623339153255
 20
-1732.843012216028
 30
0.0
 40
14.99908447265625
  0
CIRCLE
  5
1D1
  8
__-1
  6
CONTINUOUS
 62
     0
 10
412.6233391532551
 20
-1732.843012216028
 30
0.0
 40
14.99908447265625
  0
TEXT
  5
1D2
  8
__-1
 62
     0
 10
647.3733391532551
 20
-1706.063012216028
 30
0.0
 40
87.06445312499999
  1
220
  7
MS_UI_GOTHIC
 11
647.3733391532551
 21
-1618.998559091028
 31
0.0
 73
     3
  0
ENDBLK
  5
C2
  8
0
  0
BLOCK
  8
0
  2
___-15
 70
     0
 10
0.0
 20
0.0
 30
0.0
  3
___-15
  1

  0
LINE
  5
1D3
  8
__-1
  6
CONTINUOUS
 62
     0
 10
-1462.000224483851
 20
-2357.552433861835
 30
0.0
 11
-2021.224600227281
 21
-1600.79217343117
 31
0.0
  0
LINE
  5
1D4
  8
__-1
  6
CONTINUOUS
 62
     0
 10
-1303.319862384247
 20
-2572.283760600036
 30
0.0
 11
-1462.000224483851
 21
-2357.552433861835
 31
0.0
  0
CIRCLE
  5
1D5
  8
__-1
  6
CONTINUOUS
 62
     0
 10
-1303.319862384247
 20
-2572.283760600036
 30
0.0
 40
14.99836165116625
  0
CIRCLE
  5
1D6
  8
__-1
  6
CONTINUOUS
 62
     0
 10
-1462.000224483851
 20
-2357.552433861835
 30
0.0
 40
14.9986472088861
  0
TEXT
  5
1D7
  8
__-1
 62
     0
 10
-1999.687128578978
 20
-1584.876592543294
 30
0.0
 40
87.06445312499999
  1
φ89
 50
306.4633503435028
  7
MS_UI_GOTHIC
 11
-1929.666658423835
 21
-1533.133450415974
 31
0.0
 73
     3
  0
ENDBLK
  5
C5
  8
0
  0
BLOCK
  8
0
  2
___-16
 70
     0
 10
0.0
 20
0.0
 30
0.0
  3
___-16
  1

  0
LINE
  5
1D8
  8
__-1
  6
CONTINUOUS
 62
     0
 10
-1290.65600619249
 20
-2319.00200102598
 30
0.0
 11
-872.9294840691189
 21
-1656.498210790335
 31
0.0
  0
LINE
  5
1D9
  8
__-1
  6
CONTINUOUS
 62
     0
 10
-1474.664080675613
 20
-2610.834193435896
 30
0.0
 11
-1290.65600619249
 21
-2319.00200102598
 31
0.0
  0
CIRCLE
  5
1DA
  8
__-1
  6
CONTINUOUS
 62
     0
 10
-1474.664080675613
 20
-2610.834193435896
 30
0.0
 40
14.99779946470153
  0
CIRCLE
  5
1DB
  8
__-1
  6
CONTINUOUS
 62
     0
 10
-1290.65600619249
 20
-2319.00200102598
 30
0.0
 40
14.99650557016088
  0
TEXT
  5
1DC
  8
__-1
 62
     0
 10
-1064.923193520245
 20
-1910.785123413059
 30
0.0
 40
87.06445312499999
  1
φ115
 50
57.76746210521774
  7
MS_UI_GOTHIC
 11
-1138.570179712276
 21
-1864.348710730918
 31
0.0
 73
     3
  0
ENDBLK
  5
C8
  8
0
  0
BLOCK
  8
0
  2
___-17
 70
     0
 10
0.0
 20
0.0
 30
0.0
  3
___-17
  1

  0
LINE
  5
1DD
  8
__-1
  6
CONTINUOUS
 62
     0
 10
-418.679839368695
 20
-2689.918097230937
 30
0.0
 11
-268.679839368695
 21
-2689.918097230937
 31
0.0
  0
LINE
  5
1DE
  8
__-1
  6
CONTINUOUS
 62
     0
 10
-418.679839368695
 20
-2464.918097230938
 30
0.0
 11
-268.679839368695
 21
-2464.918097230938
 31
0.0
  0
LINE
  5
1DF
  8
__-1
  6
CONTINUOUS
 62
     0
 10
-268.679839368695
 20
-2689.918097230937
 30
0.0
 11
-268.679839368695
 21
-2464.918097230938
 31
0.0
  0
CIRCLE
  5
1E0
  8
__-1
  6
CONTINUOUS
 62
     0
 10
-268.679839368695
 20
-2689.918097230937
 30
0.0
 40
14.99908447265625
  0
CIRCLE
  5
1E1
  8
__-1
  6
CONTINUOUS
 62
     0
 10
-268.679839368695
 20
-2464.918097230938
 30
0.0
 40
14.99908447265625
  0
TEXT
  5
1E2
  8
__-1
 62
     0
 10
-295.4598393686949
 20
-2640.918097230937
 30
0.0
 40
87.06445312499999
  1
75
 50
90.0
  7
MS_UI_GOTHIC
 11
-382.5242924936949
 21
-2640.918097230937
 31
0.0
 73
     3
  0
ENDBLK
  5
CB
  8
0
  0
BLOCK
  8
0
  2
___-18
 70
     0
 10
0.0
 20
0.0
 30
0.0
  3
___-18
  1

  0
LINE
  5
1E3
  8
__-1
  6
CONTINUOUS
 62
     0
 10
-1066.348711573952
 20
-3289.918097230937
 30
0.0
 11
-916.3487115739517
 21
-3289.918097230937
 31
0.0
  0
LINE
  5
1E4
  8
__-1
  6
CONTINUOUS
 62
     0
 10
-1066.348711573952
 20
-2464.918097230937
 30
0.0
 11
-916.3487115739517
 21
-2464.918097230937
 31
0.0
  0
LINE
  5
1E5
  8
__-1
  6
CONTINUOUS
 62
     0
 10
-916.3487115739517
 20
-3289.918097230937
 30
0.0
 11
-916.3487115739517
 21
-2464.918097230937
 31
0.0
  0
CIRCLE
  5
1E6
  8
__-1
  6
CONTINUOUS
 62
     0
 10
-916.3487115739517
 20
-3289.918097230937
 30
0.0
 40
14.99908447265625
  0
CIRCLE
  5
1E7
  8
__-1
  6
CONTINUOUS
 62
     0
 10
-916.3487115739517
 20
-2464.918097230937
 30
0.0
 40
14.99908447265625
  0
TEXT
  5
1E8
  8
__-1
 62
     0
 10
-943.1287115739517
 20
-3196.168097230937
 30
0.0
 40
87.06445312499999
  1
275
 50
90.0
  7
MS_UI_GOTHIC
 11
-1030.193164698952
 21
-3196.168097230937
 31
0.0
 73
     3
  0
ENDBLK
  5
CE
  8
0
  0
ENDSEC
  0
SECTION
  2
ENTITIES
  0
INSERT
  5
1E9
  8
0
 62
     7
  2
*X1
 10
-129.8256442130241
 20
-2877.540951384532
 30
0.0
  0
INSERT
  5
1EA
  8
0
 62
     7
  2
*X2
 10
-129.8256442130241
 20
-2877.540951384532
 30
0.0
  0
INSERT
  5
1EB
  8
0
 62
     7
  2
*X3
 10
-129.8256442130241
 20
-2877.540951384532
 30
0.0
  0
INSERT
  5
1EC
  8
0
 62
     7
  2
*X4
 10
-129.8256442130241
 20
-2877.540951384532
 30
0.0
  0
INSERT
  5
1ED
  8
0
 62
     7
  2
*X5
 10
-129.8256442130241
 20
-2877.540951384532
 30
0.0
  0
INSERT
  5
1EE
  8
0
 62
     7
  2
*X6
 10
-129.8256442130241
 20
-2877.540951384532
 30
0.0
  0
INSERT
  5
1EF
  8
0
 62
     7
  2
*X7
 10
-129.8256442130241
 20
-2877.540951384532
 30
0.0
  0
INSERT
  5
1F0
  8
0
 62
     7
  2
*X8
 10
-129.8256442130241
 20
-2877.540951384532
 30
0.0
  0
INSERT
  5
1F1
  8
0
 62
     7
  2
*X9
 10
-129.8256442130241
 20
-2877.540951384532
 30
0.0
  0
INSERT
  5
1F2
  8
0
 62
     7
  2
*X10
 10
-129.8256442130241
 20
-2877.540951384532
 30
0.0
  0
INSERT
  5
1F3
  8
0
 62
     7
  2
*X11
 10
-129.8256442130241
 20
-2877.540951384532
 30
0.0
  0
INSERT
  5
1F4
  8
0
 62
     7
  2
*X12
 10
-129.8256442130241
 20
-2877.540951384532
 30
0.0
  0
INSERT
  5
1F5
  8
0
 62
     7
  2
*X13
 10
-129.8256442130241
 20
-2877.540951384532
 30
0.0
  0
INSERT
  5
1F6
  8
0
 62
     7
  2
*X14
 10
-129.8256442130241
 20
-2877.540951384532
 30
0.0
  0
INSERT
  5
1F7
  8
0
 62
     7
  2
*X15
 10
-129.8256442130241
 20
-2877.540951384532
 30
0.0
  0
INSERT
  5
1F8
  8
0
 62
     7
  2
*X16
 10
-129.8256442130241
 20
-2877.540951384532
 30
0.0
  0
INSERT
  5
1F9
  8
0
 62
     7
  2
*X17
 10
-129.8256442130241
 20
-2877.540951384532
 30
0.0
  0
INSERT
  5
1FA
  8
0
 62
     7
  2
*X18
 10
-129.8256442130241
 20
-2877.540951384532
 30
0.0
  0
POLYLINE
  5
1FB
  8
0
 62
    30
 66
     1
 10
0.0
 20
0.0
 30
0.0
 70
   129
  0
VERTEX
  5
1FC
  8
0
 62
    30
 10
2694.396877815281
 20
-252.4681948877314
 30
0.0
  0
VERTEX
  5
1FD
  8
0
 62
    30
 10
3728.531291106098
 20
-252.4681948877314
 30
0.0
  0
VERTEX
  5
1FE
  8
0
 62
    30
 10
3728.531291106098
 20
-5502.468194887731
 30
0.0
  0
VERTEX
  5
1FF
  8
0
 62
    30
 10
2694.396877815281
 20
-5502.468194887731
 30
0.0
  0
SEQEND
  5
200
  8
0
 62
    30
  0
LINE
  5
201
  8
0
 62
    30
 10
3211.464084460688
 20
-3750.103614903532
 30
0.0
 11
3211.464084460688
 21
-4002.103614903532
 31
0.0
  0
LINE
  5
202
  8
0
 62
    30
 10
2694.396877815278
 20
-4002.103614903532
 30
0.0
 11
3728.531291106098
 21
-4002.103614903532
 31
0.0
  0
LINE
  5
203
  8
0
 62
    30
 10
2694.396877815278
 20
-4254.103614903534
 30
0.0
 11
3728.531291106098
 21
-4254.103614903534
 31
0.0
  0
LINE
  5
204
  8
0
 62
    30
 10
2694.396877815278
 20
-4441.303614903536
 30
0.0
 11
3728.531291106098
 21
-4441.303614903536
 31
0.0
  0
LINE
  5
205
  8
0
 62
    30
 10
2694.396877815278
 20
-4609.783614903536
 30
0.0
 11
3728.531291106098
 21
-4609.783614903536
 31
0.0
  0
LINE
  5
206
  8
0
 62
    30
 10
2694.396877815278
 20
-4778.263614903535
 30
0.0
 11
3728.531291106098
 21
-4778.263614903535
 31
0.0
  0
LINE
  5
207
  8
0
 62
    30
 10
2694.396877815278
 20
-4946.717539176911
 30
0.0
 11
3728.531291106098
 21
-4946.717539176911
 31
0.0
  0
LINE
  5
208
  8
0
 62
    30
 10
3211.464084460688
 20
-4441.303614903536
 30
0.0
 11
3211.464084460688
 21
-4946.717539176911
 31
0.0
  0
TEXT
  5
209
  8
0
 62
     3
 10
2708.939521501671
 20
-4077.881421045397
 30
0.0
 40
43.53222656249999
  1
DRAWING NO.
  7
MS_UI_GOTHIC
 11
2708.939521501671
 21
-4034.349194482897
 31
0.0
 73
     3
  0
TEXT
  5
20A
  8
0
 62
     3
 10
3243.817096900938
 20
-3834.148593250346
 30
0.0
 40
43.53222656249999
  1
CHECKED BY
  7
MS_UI_GOTHIC
 11
3243.817096900938
 21
-3790.616366687846
 31
0.0
 73
     3
  0
LINE
  5
20B
  8
0
 62
    30
 10
2694.396877815278
 20
-1034.886569404875
 30
0.0
 11
3728.531291106098
 21
-1034.886569404875
 31
0.0
  0
LINE
  5
20C
  8
0
 62
    30
 10
2694.396877815278
 20
-1250.886569404875
 30
0.0
 11
3728.531291106098
 21
-1250.886569404875
 31
0.0
  0
LINE
  5
20D
  8
0
 62
    30
 10
2694.396877815278
 20
-1394.886569404877
 30
0.0
 11
3728.531291106098
 21
-1394.886569404877
 31
0.0
  0
LINE
  5
20E
  8
0
 62
    30
 10
2941.689875128689
 20
-2202.103614903534
 30
0.0
 11
3728.531291106098
 21
-2202.103614903534
 31
0.0
  0
LINE
  5
20F
  8
0
 62
    30
 10
2941.689875128689
 20
-2346.103614903534
 30
0.0
 11
3728.531291106098
 21
-2346.103614903534
 31
0.0
  0
LINE
  5
210
  8
0
 62
    30
 10
2694.396877815278
 20
-2490.103614903532
 30
0.0
 11
3728.531291106098
 21
-2490.103614903532
 31
0.0
  0
LINE
  5
211
  8
0
 62
    30
 10
2694.396877815278
 20
-2879.175972066619
 30
0.0
 11
3728.531291106098
 21
-2879.175972066619
 31
0.0
  0
LINE
  5
212
  8
0
 62
    30
 10
2941.689875128689
 20
-3030.103614903532
 30
0.0
 11
3728.531291106098
 21
-3030.103614903532
 31
0.0
  0
LINE
  5
213
  8
0
 62
    30
 10
2694.396877815278
 20
-3174.103614903534
 30
0.0
 11
3728.531291106098
 21
-3174.103614903534
 31
0.0
  0
LINE
  5
214
  8
0
 62
    30
 10
2694.396877815278
 20
-3318.103614903534
 30
0.0
 11
3728.531291106098
 21
-3318.103614903534
 31
0.0
  0
LINE
  5
215
  8
0
 62
    30
 10
2941.689875128689
 20
-3426.103614903534
 30
0.0
 11
3728.531291106098
 21
-3426.103614903534
 31
0.0
  0
LINE
  5
216
  8
0
 62
    30
 10
2941.689875128689
 20
-3534.103614903534
 30
0.0
 11
3728.531291106098
 21
-3534.103614903534
 31
0.0
  0
LINE
  5
217
  8
0
 62
    30
 10
2941.689875128689
 20
-3642.103614903534
 30
0.0
 11
3728.531291106098
 21
-3642.103614903534
 31
0.0
  0
LINE
  5
218
  8
0
 62
    30
 10
2694.396877815278
 20
-3750.103614903532
 30
0.0
 11
3728.531291106098
 21
-3750.103614903532
 31
0.0
  0
LINE
  5
219
  8
0
 62
    30
 10
2941.689875128689
 20
-1394.886569404877
 30
0.0
 11
2941.689875128689
 21
-2879.175972066619
 31
0.0
  0
TEXT
  5
21A
  8
0
 62
     3
 10
2720.821207372385
 20
-3840.385129978044
 30
0.0
 40
43.53222656249999
  1
DRAWING BY
  7
MS_UI_GOTHIC
 11
2720.821207372385
 21
-3796.852903415544
 31
0.0
 73
     3
  0
TEXT
  5
21B
  8
0
 62
     3
 10
2721.063480792615
 20
-3484.903277231766
 30
0.0
 40
43.53222656249999
  1
ACC. 
  7
MS_UI_GOTHIC
 11
2721.063480792615
 21
-3441.371050669266
 31
0.0
 73
     3
  0
TEXT
  5
21C
  8
0
 62
     3
 10
2721.063480792615
 20
-3548.403277231766
 30
0.0
 40
43.53222656249999
  1
 / 
  7
MS_UI_GOTHIC
 11
2721.063480792615
 21
-3504.871050669266
 31
0.0
 73
     3
  0
TEXT
  5
21D
  8
0
 62
     3
 10
2721.063480792615
 20
-3611.903277231766
 30
0.0
 40
43.53222656249999
  1
APPL
  7
MS_UI_GOTHIC
 11
2721.063480792615
 21
-3568.371050669266
 31
0.0
 73
     3
  0
LINE
  5
21E
  8
0
 62
    30
 10
2941.689875128689
 20
-3318.103614903534
 30
0.0
 11
2941.689875128689
 21
-3642.103614903534
 31
0.0
  0
LINE
  5
21F
  8
0
 62
    30
 10
2941.689875128689
 20
-3642.103614903534
 30
0.0
 11
2941.689875128689
 21
-3750.103614903532
 31
0.0
  0
TEXT
  5
220
  8
0
 62
     3
 10
3009.133415501298
 20
-1351.492530580792
 30
0.0
 40
43.53222656249999
  1
MATERIALS
  7
MS_UI_GOTHIC
 11
3009.133415501298
 21
-1307.960304018292
 31
0.0
 73
     3
  0
TEXT
  5
221
  8
0
 62
     3
 10
2716.878041992291
 20
-1115.657026201821
 30
0.0
 40
43.53222656249999
  1
SCALE
  7
MS_UI_GOTHIC
 11
2716.878041992291
 21
-1072.124799639321
 31
0.0
 73
     3
  0
TEXT
  5
222
  8
0
 62
     3
 10
3233.945272558482
 20
-1115.657026201821
 30
0.0
 40
43.53222656249999
  1
DATA
  7
MS_UI_GOTHIC
 11
3233.945272558482
 21
-1072.124799639321
 31
0.0
 73
     3
  0
LINE
  5
223
  8
0
 62
    30
 10
3211.464084460688
 20
-1034.886569404875
 30
0.0
 11
3211.464084460688
 21
-1250.886569404875
 31
0.0
  0
LINE
  5
224
  8
0
 62
    30
 10
2694.396877815278
 20
-487.958913572661
 30
0.0
 11
3728.531291106098
 21
-487.958913572661
 31
0.0
  0
LINE
  5
225
  8
0
 62
    30
 10
2694.396877815278
 20
-647.8076011497669
 30
0.0
 11
3728.531291106098
 21
-647.8076011497669
 31
0.0
  0
LINE
  5
226
  8
0
 62
    30
 10
2694.396877815278
 20
-863.8076011497669
 30
0.0
 11
3728.531291106098
 21
-863.8076011497669
 31
0.0
  0
TEXT
  5
227
  8
0
 62
     3
 10
2713.118636041188
 20
-756.2886552849718
 30
0.0
 40
43.53222656249999
  1
MODEL
  7
MS_UI_GOTHIC
 11
2713.118636041188
 21
-712.7564287224718
 31
0.0
 73
     3
  0
TEXT
  5
228
  8
0
 62
     3
 10
2716.878041992291
 20
-947.2031019284445
 30
0.0
 40
43.53222656249999
  1
SIZE
  7
MS_UI_GOTHIC
 11
2716.878041992291
 21
-903.6708753659445
 31
0.0
 73
     3
  0
LINE
  5
229
  8
0
 62
    30
 10
2694.396877815278
 20
-2086.903614903533
 30
0.0
 11
3728.531291106098
 21
-2086.903614903533
 31
0.0
  0
LINE
  5
22A
  8
0
 62
    30
 10
2941.689875128689
 20
-1971.703614903534
 30
0.0
 11
3728.531291106098
 21
-1971.703614903534
 31
0.0
  0
LINE
  5
22B
  8
0
 62
    30
 10
2941.689875128689
 20
-1856.503614903535
 30
0.0
 11
3728.531291106098
 21
-1856.503614903535
 31
0.0
  0
LINE
  5
22C
  8
0
 62
    30
 10
2694.396877815278
 20
-1741.303614903533
 30
0.0
 11
3728.531291106098
 21
-1741.303614903533
 31
0.0
  0
LINE
  5
22D
  8
0
 62
    30
 10
2941.689875128689
 20
-1626.103614903534
 30
0.0
 11
3728.531291106098
 21
-1626.103614903534
 31
0.0
  0
LINE
  5
22E
  8
0
 62
    30
 10
2941.689875128689
 20
-1510.903614903533
 30
0.0
 11
3728.531291106098
 21
-1510.903614903533
 31
0.0
  0
LINE
  5
22F
  8
0
 62
    30
 10
2941.689875128689
 20
-2619.703614903534
 30
0.0
 11
3728.531291106098
 21
-2619.703614903534
 31
0.0
  0
LINE
  5
230
  8
0
 62
    30
 10
2941.689875128689
 20
-2749.303614903533
 30
0.0
 11
3728.531291106098
 21
-2749.303614903533
 31
0.0
  0
TEXT
  5
231
  8
0
 62
     3
 10
3099.578065673858
 20
-805.6504067374508
 30
0.0
 40
64.98828125
  1
SQS 5040 
  7
HGP________UB
 11
3099.578065673858
 21
-740.6621254874508
 31
0.0
 73
     3
  0
TEXT
  5
232
  8
0
 62
     3
 10
3261.726124535285
 20
-1201.633759647195
 30
0.0
 40
43.53222656249999
  1
09.06.09
  7
MS_UI_GOTHIC
 11
3261.726124535285
 21
-1158.101533084695
 31
0.0
 73
     3
  0
TEXT
  5
233
  8
0
 62
     3
 10
3082.569052324908
 20
-965.9916991421937
 30
0.0
 40
43.53222656249999
  1
500*400*220mm
  7
MS_UI_GOTHIC
 11
3082.569052324908
 21
-922.4594725796937
 31
0.0
 73
     3
  0
TEXT
  5
234
  8
0
 62
     3
 10
2716.492724538596
 20
-1589.884982154819
 30
0.0
 40
43.53222656249999
  1
BOWL
  7
MS_UI_GOTHIC
 11
2716.492724538596
 21
-1546.352755592319
 31
0.0
 73
     3
  0
LINE
  5
235
  8
0
 62
    30
 10
3186.489875128685
 20
-1394.886569404877
 30
0.0
 11
3186.489875128685
 21
-3030.103614903532
 31
0.0
  0
TEXT
  5
236
  8
0
 62
     3
 10
2969.434202081214
 20
-2831.446159267064
 30
0.0
 40
43.53222656249999
  1
 
  7
MS_UI_GOTHIC
 11
2969.434202081214
 21
-2787.913932704564
 31
0.0
 73
     3
  0
TEXT
  5
237
  8
0
 62
     3
 10
2759.819504878352
 20
-3003.766926804203
 30
0.0
 40
43.53222656249999
  1
 
  7
MS_UI_GOTHIC
 11
2759.819504878352
 21
-2960.234700241703
 31
0.0
 73
     3
  0
TEXT
  5
238
  8
0
 62
     3
 10
2979.890670395543
 20
-2707.894327230515
 30
0.0
 40
43.53222656249999
  1
  
  7
MS_UI_GOTHIC
 11
2979.890670395543
 21
-2664.362100668015
 31
0.0
 73
     3
  0
TEXT
  5
239
  8
0
 62
     3
 10
3198.13589508683
 20
-2681.094289315524
 30
0.0
 40
43.53222656249999
  1
 
  7
MS_UI_GOTHIC
 11
3198.13589508683
 21
-2637.562062753024
 31
0.0
 73
     3
  0
TEXT
  5
23A
  8
0
 62
     3
 10
2711.059342133263
 20
-1942.664605360457
 30
0.0
 40
43.53222656249999
  1
TOP
  7
MS_UI_GOTHIC
 11
2711.059342133263
 21
-1899.132378797957
 31
0.0
 73
     3
  0
TEXT
  5
23B
  8
0
 62
     3
 10
2888.846022612036
 20
-3953.238720628126
 30
0.0
 40
43.53222656249999
  1
shoda
  7
MS_UI_GOTHIC
 11
2888.846022612036
 21
-3909.706494065626
 31
0.0
 73
     3
  0
TEXT
  5
23C
  8
0
 62
     3
 10
2994.893665735702
 20
-1842.365413031975
 30
0.0
 40
43.53222656249999
  1
材質
  7
MS_UI_GOTHIC
 11
2994.893665735702
 21
-1798.833186469475
 31
0.0
 73
     3
  0
TEXT
  5
23D
  8
0
 62
     3
 10
2994.893665735702
 20
-1938.537189171869
 30
0.0
 40
43.53222656249999
  1
仕上
  7
MS_UI_GOTHIC
 11
2994.893665735702
 21
-1895.004962609369
 31
0.0
 73
     3
  0
TEXT
  5
23E
  8
0
 62
     3
 10
2994.893665735702
 20
-2067.365413031975
 30
0.0
 40
43.53222656249999
  1
厚
  7
MS_UI_GOTHIC
 11
2994.893665735702
 21
-2023.833186469475
 31
0.0
 73
     3
  0
TEXT
  5
23F
  8
0
 62
     3
 10
3211.127897091791
 20
-1842.606321091043
 30
0.0
 40
43.53222656249999
  1
SUS 304
  7
MS_UI_GOTHIC
 11
3211.127897091791
 21
-1799.074094528543
 31
0.0
 73
     3
  0
TEXT
  5
240
  8
0
 62
     3
 10
3211.127897091791
 20
-1938.778097230937
 30
0.0
 40
43.53222656249999
  1
HL
  7
MS_UI_GOTHIC
 11
3211.127897091791
 21
-1895.245870668437
 31
0.0
 73
     3
  0
TEXT
  5
241
  8
0
 62
     3
 10
3211.127897091791
 20
-2067.606321091042
 30
0.0
 40
43.53222656249999
  1
1.2 T
  7
MS_UI_GOTHIC
 11
3211.127897091791
 21
-2024.074094528543
 31
0.0
 73
     3
  0
TEXT
  5
242
  8
0
 62
     3
 10
3213.893665735702
 20
-1482.365413031975
 30
0.0
 40
43.53222656249999
  1
SUS 304
  7
MS_UI_GOTHIC
 11
3213.893665735702
 21
-1438.833186469475
 31
0.0
 73
     3
  0
TEXT
  5
243
  8
0
 62
     3
 10
3216.46334830463
 20
-1605.850272212649
 30
0.0
 40
43.53222656249999
  1
HL
  7
MS_UI_GOTHIC
 11
3216.46334830463
 21
-1562.318045650149
 31
0.0
 73
     3
  0
TEXT
  5
244
  8
0
 62
     3
 10
3211.127897091791
 20
-1722.606321091043
 30
0.0
 40
43.53222656249999
  1
1.2 T
  7
MS_UI_GOTHIC
 11
3211.127897091791
 21
-1679.074094528543
 31
0.0
 73
     3
  0
TEXT
  5
245
  8
0
 62
     3
 10
2994.893665735702
 20
-1482.365413031975
 30
0.0
 40
43.53222656249999
  1
材質
  7
MS_UI_GOTHIC
 11
2994.893665735702
 21
-1438.833186469475
 31
0.0
 73
     3
  0
TEXT
  5
246
  8
0
 62
     3
 10
2994.893665735702
 20
-1602.365413031975
 30
0.0
 40
43.53222656249999
  1
仕上
  7
MS_UI_GOTHIC
 11
2994.893665735702
 21
-1558.833186469475
 31
0.0
 73
     3
  0
TEXT
  5
247
  8
0
 62
     3
 10
2994.893665735702
 20
-1722.365413031975
 30
0.0
 40
43.53222656249999
  1
厚
  7
MS_UI_GOTHIC
 11
2994.893665735702
 21
-1678.833186469475
 31
0.0
 73
     3
  0
TEXT
  5
248
  8
0
 62
     3
 10
2710.168415231979
 20
-2347.400591680859
 30
0.0
 40
43.53222656249999
  1
PEパッド
  7
MS_UI_GOTHIC
 11
2710.168415231979
 21
-2303.868365118359
 31
0.0
 73
     3
  0
TEXT
  5
249
  8
0
 62
     3
 10
3199.290642442152
 20
-2586.56897807639
 30
0.0
 40
43.53222656249999
  1
SUNNY-DINE #95N 
  7
MS_UI_GOTHIC
 11
3199.290642442152
 21
-2543.03675151389
 31
0.0
 73
     3
  0
TEXT
  5
24A
  8
0
 62
     3
 10
3009.945476783899
 20
-2180.376784910376
 30
0.0
 40
43.53222656249999
  1
材質
  7
MS_UI_GOTHIC
 11
3009.945476783899
 21
-2136.844558347876
 31
0.0
 73
     3
  0
TEXT
  5
24B
  8
0
 62
     3
 10
3214.530089281518
 20
-2179.755119580944
 30
0.0
 40
43.53222656249999
  1
ポリエチレン
  7
MS_UI_GOTHIC
 11
3214.530089281518
 21
-2136.222893018444
 31
0.0
 73
     3
  0
TEXT
  5
24C
  8
0
 62
     3
 10
3226.875595322087
 20
-2446.202157585805
 30
0.0
 40
43.53222656249999
  1
5 mm
  7
MS_UI_GOTHIC
 11
3226.875595322087
 21
-2402.669931023305
 31
0.0
 73
     3
  0
TEXT
  5
24D
  8
0
 62
     3
 10
3019.651288426048
 20
-2306.376784910376
 30
0.0
 40
43.53222656249999
  1
色
  7
MS_UI_GOTHIC
 11
3019.651288426048
 21
-2262.844558347876
 31
0.0
 73
     3
  0
TEXT
  5
24E
  8
0
 62
     3
 10
3018.945476783899
 20
-2447.376784910376
 30
0.0
 40
43.53222656249999
  1
厚
  7
MS_UI_GOTHIC
 11
3018.945476783899
 21
-2403.844558347876
 31
0.0
 73
     3
  0
TEXT
  5
24F
  8
0
 62
     3
 10
3208.184583240955
 20
-2306.308081576084
 30
0.0
 40
43.53222656249999
  1
黒
  7
MS_UI_GOTHIC
 11
3208.184583240955
 21
-2262.775855013584
 31
0.0
 73
     3
  0
TEXT
  5
250
  8
0
 62
     3
 10
2710.168415231979
 20
-2617.298925014192
 30
0.0
 40
36.27685546875
  1
静音／ 
  7
MS_UI_GOTHIC
 11
2710.168415231979
 21
-2581.022069545442
 31
0.0
 73
     3
  0
TEXT
  5
251
  8
0
 62
     3
 10
2710.168415231979
 20
-2690.059341680859
 30
0.0
 40
36.27685546875
  1
結露防止 
  7
MS_UI_GOTHIC
 11
2710.168415231979
 21
-2653.782486212109
 31
0.0
 73
     3
  0
TEXT
  5
252
  8
0
 62
     3
 10
2710.168415231979
 20
-2762.819758347525
 30
0.0
 40
36.27685546875
  1
パッド
  7
MS_UI_GOTHIC
 11
2710.168415231979
 21
-2726.542902878775
 31
0.0
 73
     3
  0
TEXT
  5
253
  8
0
 62
     3
 10
2974.745832402849
 20
-2590.400591680859
 30
0.0
 40
43.53222656249999
  1
製品名
  7
MS_UI_GOTHIC
 11
2974.745832402849
 21
-2546.868365118359
 31
0.0
 73
     3
  0
TEXT
  5
254
  8
0
 62
     3
 10
2989.315857200489
 20
-2722.400591680856
 30
0.0
 40
43.53222656249999
  1
材質
  7
MS_UI_GOTHIC
 11
2989.315857200489
 21
-2678.868365118356
 31
0.0
 73
     3
  0
TEXT
  5
255
  8
0
 62
     3
 10
3190.30603578137
 20
-2713.98445265847
 30
0.0
 40
36.27685546875
  1
特殊合成ゴム 合成樹脂
  7
MS_UI_GOTHIC
 11
3190.30603578137
 21
-2677.70759718972
 31
0.0
 73
     3
  0
TEXT
  5
256
  8
0
 62
     3
 10
2712.91137657138
 20
-3016.946145079428
 30
0.0
 40
43.53222656249999
  1
天板 
  7
MS_UI_GOTHIC
 11
2712.91137657138
 21
-2973.413918516928
 31
0.0
 73
     3
  0
TEXT
  5
257
  8
0
 62
     3
 10
2712.91137657138
 20
-3080.446145079428
 30
0.0
 40
43.53222656249999
  1
開口
  7
MS_UI_GOTHIC
 11
2712.91137657138
 21
-3036.913918516928
 31
0.0
 73
     3
  0
TEXT
  5
258
  8
0
 62
     3
 10
2739.91137657138
 20
-3235.946145079428
 30
0.0
 40
43.53222656249999
  1
オーバーフォロー 
  7
MS_UI_GOTHIC
 11
2739.91137657138
 21
-3192.413918516928
 31
0.0
 73
     3
  0
TEXT
  5
259
  8
0
 62
     3
 10
2739.91137657138
 20
-3299.446145079428
 30
0.0
 40
43.53222656249999
  1
／有無
  7
MS_UI_GOTHIC
 11
2739.91137657138
 21
-3255.913918516928
 31
0.0
 73
     3
  0
LINE
  5
25A
  8
0
 62
    30
 10
3728.531291106098
 20
-252.4681948877314
 30
0.0
 11
3728.531291106098
 21
-5502.468194887731
 31
0.0
  0
LINE
  5
25B
  8
FRAME
 62
    30
 10
-3981.468708893902
 20
-252.4681948877314
 30
0.0
 11
3728.531291106098
 21
-252.4681948877314
 31
0.0
  0
LINE
  5
25C
  8
0
  6
CONTINUOUS
 62
    30
 10
-3981.468708893902
 20
-252.4681948877314
 30
0.0
 11
-3981.468708893902
 21
-5502.468194887731
 31
0.0
  0
LINE
  5
25D
  8
0
  6
CONTINUOUS
 62
    30
 10
-3981.468708893902
 20
-5502.468194887731
 30
0.0
 11
3734.573161459511
 21
-5502.468194887731
 31
0.0
  0
TEXT
  5
25E
  8
0
 62
     3
 10
3304.651288426048
 20
-3953.528097230937
 30
0.0
 40
43.53222656249999
  1
kanayama
  7
MS_UI_GOTHIC
 11
3304.651288426048
 21
-3909.995870668437
 31
0.0
 73
     3
  0
TEXT
  5
25F
  8
0
 62
     3
 10
3208.184583240955
 20
-3266.308081576084
 30
0.0
 40
43.53222656249999
  1
無
  7
MS_UI_GOTHIC
 11
3208.184583240955
 21
-3222.775855013584
 31
0.0
 73
     3
  0
LINE
  5
260
  8
CENTER
  6
CONTINUOUS
 62
     2
 10
-1382.660043434049
 20
-1942.79063871289
 30
0.0
 11
-1382.660043434049
 21
-3463.628344728369
 31
0.0
  0
INSERT
  5
261
  8
0
 62
     2
  2
___
 10
0.0
 20
0.0
 30
0.0
  0
LINE
  5
262
  8
__
 62
    30
 10
1072.623339153255
 20
-2639.382807506014
 30
0.0
 11
1072.623339153255
 21
-2289.876715965785
 31
0.0
  0
LINE
  5
263
  8
__
 62
    30
 10
1093.023339153264
 20
-2598.418097230937
 30
0.0
 11
1093.023339153264
 21
-2331.418097230937
 31
0.0
  0
LINE
  5
264
  8
__
 62
    30
 10
412.6233391532551
 20
-2014.918097230937
 30
0.0
 11
412.6233391532551
 21
-3364.918097230937
 31
0.0
  0
CIRCLE
  5
265
  8
__
 62
    30
 10
-1382.660043434049
 20
-2464.918097230937
 30
0.0
 40
172.5
  0
CIRCLE
  5
266
  8
__
 62
    30
 10
-1382.660043434049
 20
-2464.918097230937
 30
0.0
 40
133.5
  0
LINE
  5
267
  8
0
 62
    30
 10
-2132.660043434049
 20
-2089.918097230937
 30
0.0
 11
-2132.660043434049
 21
-3289.918097230937
 31
0.0
  0
LINE
  5
268
  8
0
 62
    30
 10
-632.6600434340489
 20
-3289.918097230937
 30
0.0
 11
-632.6600434340489
 21
-2089.918097230937
 31
0.0
  0
LINE
  5
269
  8
0
 62
    30
 10
-572.6600434340489
 20
-2014.918097230937
 30
0.0
 11
-2192.660043434049
 21
-2014.918097230937
 31
0.0
  0
LINE
  5
26A
  8
0
 62
    30
 10
-2207.660043434049
 20
-2029.918097230942
 30
0.0
 11
-2207.660043434049
 21
-3349.918097230942
 31
0.0
  0
ARC
  5
26B
  8
0
 62
    30
 10
-2192.660043434049
 20
-2029.918097230942
 30
0.0
 40
15.0
 50
90.0
 51
180.0
  0
LINE
  5
26C
  8
0
 62
    30
 10
-2192.660043434049
 20
-3364.918097230937
 30
0.0
 11
-572.6600434340489
 21
-3364.918097230937
 31
0.0
  0
ARC
  5
26D
  8
0
 62
    30
 10
-2192.660043434049
 20
-3349.918097230942
 30
0.0
 40
15.0
 50
180.0
 51
270.0
  0
LINE
  5
26E
  8
0
 62
    30
 10
-557.6600434340489
 20
-3349.918097230942
 30
0.0
 11
-557.6600434340489
 21
-2029.918097230942
 31
0.0
  0
ARC
  5
26F
  8
0
 62
    30
 10
-572.6600434340489
 20
-3349.918097230942
 30
0.0
 40
15.0
 50
270.0
 51
0.0
  0
ARC
  5
270
  8
0
 62
    30
 10
-572.6600434340489
 20
-2029.918097230942
 30
0.0
 40
15.0
 50
0.0
 51
90.0
  0
LINE
  5
271
  8
CENTER
  6
CONTINUOUS
 62
     2
 10
-2347.470611844505
 20
-2689.918097230937
 30
0.0
 11
-484.3487115739517
 21
-2689.918097230937
 31
0.0
  0
LINE
  5
272
  8
CENTER
  6
CONTINUOUS
 62
     2
 10
-1699.649360453213
 20
-2464.918097230937
 30
0.0
 11
-1120.348711573952
 21
-2464.918097230937
 31
0.0
  0
LINE
  5
273
  8
__
 62
     2
 10
-1498.696100398412
 20
-2592.557759891739
 30
0.0
 11
-2132.660043434049
 21
-3289.918097230937
 31
0.0
  0
LINE
  5
274
  8
0
 62
    30
 10
-2132.660043434049
 20
-3289.918097230937
 30
0.0
 11
-632.6600434340489
 21
-3289.918097230937
 31
0.0
  0
INSERT
  5
275
  8
__
 62
     2
  2
___-1
 10
0.0
 20
0.0
 30
0.0
  0
INSERT
  5
276
  8
__
 62
     2
  2
___-2
 10
0.0
 20
0.0
 30
0.0
  0
LINE
  5
277
  8
__
 62
     2
 10
-1266.623986469685
 20
-2592.557759891739
 30
0.0
 11
-632.6600434340489
 21
-3289.918097230937
 31
0.0
  0
LINE
  5
278
  8
__
  6
CONTINUOUS
 62
    30
 10
1060.157466282446
 20
-3284.111149674607
 30
0.0
 11
1074.965646022771
 21
-2639.955330970679
 31
0.0
  0
LINE
  5
279
  8
__
  6
CONTINUOUS
 62
    30
 10
1057.758100196879
 20
-3284.055991833558
 30
0.0
 11
1072.566279937193
 21
-2639.900173129633
 31
0.0
  0
LINE
  5
27A
  8
__
 62
    30
 10
415.0233391532529
 20
-3292.31809723094
 30
0.0
 11
1051.759684982957
 21
-3292.31809723094
 31
0.0
  0
LINE
  5
27B
  8
__
 62
    30
 10
412.6233391532551
 20
-3289.918097230937
 30
0.0
 11
1051.759684982957
 21
-3289.918097230937
 31
0.0
  0
LINE
  5
27C
  8
__
 62
    30
 10
415.0233391532529
 20
-3292.31809723094
 30
0.0
 11
415.0233391532529
 21
-3364.918097230937
 31
0.0
  0
LINE
  5
27D
  8
__
 62
    30
 10
412.6233391532551
 20
-3364.918097230937
 30
0.0
 11
415.0233391532529
 21
-3364.918097230937
 31
0.0
  0
ARC
  5
27E
  8
__
 62
    30
 10
1051.759684982957
 20
-3283.918097230945
 30
0.0
 40
8.400000000000546
 50
270.0
 51
358.6830875942161
  0
ARC
  5
27F
  8
__
 62
    30
 10
1051.759684982957
 20
-3283.918097230945
 30
0.0
 40
6.0
 50
270.0
 51
358.6830875942047
  0
LINE
  5
280
  8
CENTER
  6
CONTINUOUS
 62
     2
 10
135.3407609105197
 20
-2689.918097230937
 30
0.0
 11
1223.961815941577
 21
-2689.918097230937
 31
0.0
  0
LINE
  5
281
  8
__
 62
    30
 10
1075.023339153253
 20
-2639.451202243059
 30
0.0
 11
1088.511093684709
 21
-2637.203243154485
 31
0.0
  0
LINE
  5
282
  8
__
 62
    30
 10
1075.07229058224
 20
-2637.009938659445
 30
0.0
 11
1088.11653611518
 21
-2634.835897737285
 31
0.0
  0
ARC
  5
283
  8
__
 62
    30
 10
1075.565487544154
 20
-2639.969120430936
 30
0.0
 40
2.999999999999527
 50
99.4623222079828
 51
178.6830875942331
  0
LINE
  5
284
  8
__
 62
    30
 10
1090.623339153255
 20
-2598.418097230937
 30
0.0
 11
1093.023339153264
 21
-2598.418097230937
 31
0.0
  0
ARC
  5
285
  8
__
 62
    30
 10
1087.623339153255
 20
-2631.876715965791
 30
0.0
 40
5.40000000000112
 50
279.4623222080732
 51
0.0
  0
LINE
  5
286
  8
__
 62
    30
 10
1093.023339153264
 20
-2631.876715965791
 30
0.0
 11
1093.023339153264
 21
-2598.418097230937
 31
0.0
  0
ARC
  5
287
  8
__
 62
    30
 10
1087.623339153255
 20
-2631.876715965791
 30
0.0
 40
3.000000000002218
 50
279.4623222079742
 51
0.0
  0
LINE
  5
288
  8
__
 62
    30
 10
1090.623339153255
 20
-2631.876715965791
 30
0.0
 11
1090.623339153255
 21
-2598.418097230937
 31
0.0
  0
LINE
  5
289
  8
__
 62
     2
 10
-1536.948733881536
 20
-2387.773752007199
 30
0.0
 11
-2132.660043434049
 21
-2089.918097230937
 31
0.0
  0
LINE
  5
28A
  8
0
 62
    30
 10
-632.6600434340489
 20
-2089.918097230937
 30
0.0
 11
-2132.660043434049
 21
-2089.918097230937
 31
0.0
  0
LINE
  5
28B
  8
__
 62
     2
 10
-1228.371352986562
 20
-2387.773752007199
 30
0.0
 11
-632.6600434340489
 21
-2089.918097230937
 31
0.0
  0
LINE
  5
28C
  8
__
 62
    30
 10
415.0233391532529
 20
-2087.518097230942
 30
0.0
 11
1051.876536727796
 21
-2087.518097230942
 31
0.0
  0
LINE
  5
28D
  8
__
 62
    30
 10
412.6233391532551
 20
-2089.918097230937
 30
0.0
 11
1052.056573978647
 21
-2089.918097230937
 31
0.0
  0
LINE
  5
28E
  8
__
 62
    30
 10
415.0233391532529
 20
-2014.918097230937
 30
0.0
 11
415.0233391532529
 21
-2087.518097230942
 31
0.0
  0
LINE
  5
28F
  8
__
 62
    30
 10
415.0233391532529
 20
-2014.918097230937
 30
0.0
 11
412.6233391532551
 21
-2014.918097230937
 31
0.0
  0
LINE
  5
290
  8
__
  6
CONTINUOUS
 62
    30
 10
1075.016614726304
 20
-2289.697183151337
 30
0.0
 11
1060.433038484309
 21
-2095.289732380354
 31
0.0
  0
LINE
  5
291
  8
__
  6
CONTINUOUS
 62
    30
 10
1072.623339153255
 20
-2289.876715965791
 30
0.0
 11
1058.039762911259
 21
-2095.469265194804
 31
0.0
  0
LINE
  5
292
  8
__
 62
    30
 10
1088.511093684709
 20
-2292.632951307397
 30
0.0
 11
1075.023339153253
 21
-2290.38499221882
 31
0.0
  0
LINE
  5
293
  8
__
 62
    30
 10
1088.11653611518
 20
-2295.000296724592
 30
0.0
 11
1075.130142191341
 21
-2292.835897737285
 31
0.0
  0
LINE
  5
294
  8
__
 62
    30
 10
1075.023339153253
 20
-2290.38499221882
 30
0.0
 11
1075.023339153253
 21
-2289.876715965791
 31
0.0
  0
ARC
  5
295
  8
__
 62
    30
 10
1075.623339153255
 20
-2289.876715965791
 30
0.0
 40
3.0
 50
180.0
 51
260.5376777920258
  0
LINE
  5
296
  8
__
 62
    30
 10
1090.623339153255
 20
-2331.418097230937
 30
0.0
 11
1093.023339153264
 21
-2331.418097230937
 31
0.0
  0
ARC
  5
297
  8
__
 62
    30
 10
1087.623339153255
 20
-2297.959478496088
 30
0.0
 40
5.399999999997817
 50
0.0
 51
80.5376777919268
  0
LINE
  5
298
  8
__
 62
    30
 10
1093.023339153264
 20
-2297.959478496088
 30
0.0
 11
1093.023339153264
 21
-2331.418097230937
 31
0.0
  0
ARC
  5
299
  8
__
 62
    30
 10
1087.623339153255
 20
-2297.959478496088
 30
0.0
 40
3.0
 50
0.0
 51
80.53767779201723
  0
LINE
  5
29A
  8
__
 62
    30
 10
1090.623339153255
 20
-2297.959478496088
 30
0.0
 11
1090.623339153255
 21
-2331.418097230937
 31
0.0
  0
ARC
  5
29B
  8
__
 62
    30
 10
1052.056573978647
 20
-2095.918097230937
 30
0.0
 40
8.40000000000372
 50
4.290037651907414
 51
90.0
  0
ARC
  5
29C
  8
__
 62
    30
 10
1052.056573978647
 20
-2095.918097230937
 30
0.0
 40
5.999999999999518
 50
4.29003765190593
 51
90.0
  0
LINE
  5
29D
  8
__
 62
    30
 10
1052.056573978636
 20
-2087.518097230942
 30
0.0
 11
1052.05134521073
 21
-2087.518097230942
 31
0.0
  0
INSERT
  5
29E
  8
0
 62
     2
  2
___-3
 10
0.0
 20
0.0
 30
0.0
  0
INSERT
  5
29F
  8
0
 62
     2
  2
___-4
 10
0.0
 20
0.0
 30
0.0
  0
INSERT
  5
2A0
  8
0
 62
     2
  2
___-5
 10
0.0
 20
0.0
 30
0.0
  0
INSERT
  5
2A1
  8
0
 62
     2
  2
___-6
 10
0.0
 20
0.0
 30
0.0
  0
INSERT
  5
2A2
  8
__-1
 62
     2
  2
___-7
 10
0.0
 20
0.0
 30
0.0
  0
INSERT
  5
2A3
  8
__-1
 62
     2
  2
___-8
 10
0.0
 20
0.0
 30
0.0
  0
INSERT
  5
2A4
  8
__-1
 62
     2
  2
___-9
 10
0.0
 20
0.0
 30
0.0
  0
INSERT
  5
2A5
  8
__-1
 62
     2
  2
___-10
 10
0.0
 20
0.0
 30
0.0
  0
INSERT
  5
2A6
  8
__-1
 62
     2
  2
___-11
 10
0.0
 20
0.0
 30
0.0
  0
INSERT
  5
2A7
  8
__-1
 62
     2
  2
___-12
 10
0.0
 20
0.0
 30
0.0
  0
INSERT
  5
2A8
  8
__-1
 62
     2
  2
___-13
 10
0.0
 20
0.0
 30
0.0
  0
TEXT
  5
2A9
  8
0
 62
     3
 10
-1250.535043434045
 20
-3577.591345549362
 30
0.0
 40
65.29833984375
  1
+0 
  7
MS_UI_GOTHIC
 11
-1250.535043434045
 21
-3512.293005705612
 31
0.0
 73
     3
  0
TEXT
  5
2AA
  8
0
 62
     3
 10
-1250.535043434045
 20
-3662.258012216029
 30
0.0
 40
65.29833984375
  1
-2
  7
MS_UI_GOTHIC
 11
-1250.535043434045
 21
-3596.959672372279
 31
0.0
 73
     3
  0
TEXT
  5
2AB
  8
0
 62
     2
 10
-1247.535043434045
 20
-3850.525158475619
 30
0.0
 40
65.29833984375
  1
+0 
  7
MS_UI_GOTHIC
 11
-1247.535043434045
 21
-3785.226818631869
 31
0.0
 73
     3
  0
TEXT
  5
2AC
  8
0
 62
     2
 10
-1247.535043434045
 20
-3935.191825142286
 30
0.0
 40
65.29833984375
  1
-2
  7
MS_UI_GOTHIC
 11
-1247.535043434045
 21
-3869.893485298536
 31
0.0
 73
     3
  0
TEXT
  5
2AD
  8
0
 62
     3
 10
-2517.735773064217
 20
-2572.468012216028
 30
0.0
 40
65.29833984375
  1
+0 
 50
90.0
  7
MS_UI_GOTHIC
 11
-2583.034112907967
 21
-2572.468012216028
 31
0.0
 73
     3
  0
TEXT
  5
2AE
  8
0
 62
     3
 10
-2433.06910639755
 20
-2572.468012216028
 30
0.0
 40
65.29833984375
  1
-2
 50
90.0
  7
MS_UI_GOTHIC
 11
-2498.3674462413
 21
-2572.468012216028
 31
0.0
 73
     3
  0
TEXT
  5
2AF
  8
0
 62
     3
 10
-2742.735773064217
 20
-2572.468012216028
 30
0.0
 40
65.29833984375
  1
+0 
 50
90.0
  7
MS_UI_GOTHIC
 11
-2808.034112907967
 21
-2572.468012216028
 31
0.0
 73
     3
  0
TEXT
  5
2B0
  8
0
 62
     3
 10
-2658.06910639755
 20
-2572.468012216028
 30
0.0
 40
65.29833984375
  1
-2
 50
90.0
  7
MS_UI_GOTHIC
 11
-2723.3674462413
 21
-2572.468012216028
 31
0.0
 73
     3
  0
INSERT
  5
2B1
  8
__-1
 62
     2
  2
___-14
 10
0.0
 20
0.0
 30
0.0
  0
POLYLINE
  5
2B2
  8
0
  6
CONTINUOUS
 62
     3
 66
     1
 10
0.0
 20
0.0
 30
0.0
 70
   129
  0
VERTEX
  5
2B3
  8
0
  6
CONTINUOUS
 62
     3
 10
-952.9754565275816
 20
-1682.04537821365
 30
0.0
  0
VERTEX
  5
2B4
  8
0
  6
CONTINUOUS
 62
     3
 10
-767.2598191178895
 20
-1442.787685309039
 30
0.0
  0
VERTEX
  5
2B5
  8
0
  6
CONTINUOUS
 62
     3
 10
-680.3447205268949
 20
-1510.252571137347
 30
0.0
  0
VERTEX
  5
2B6
  8
0
  6
CONTINUOUS
 62
     3
 10
-866.060357936587
 20
-1749.510264041958
 30
0.0
  0
SEQEND
  5
2B7
  8
0
  6
CONTINUOUS
 62
     3
  0
INSERT
  5
2B8
  8
__-1
 62
     2
  2
___-15
 10
0.0
 20
0.0
 30
0.0
  0
INSERT
  5
2B9
  8
__-1
 62
     2
  2
___-16
 10
0.0
 20
0.0
 30
0.0
  0
CIRCLE
  5
2BA
  8
__
 62
    30
 10
-1382.660043434049
 20
-2464.918097230937
 30
0.0
 40
169.5
  0
INSERT
  5
2BB
  8
__-1
 62
    30
  2
___-17
 10
0.0
 20
0.0
 30
0.0
  0
INSERT
  5
2BC
  8
__-1
 62
     2
  2
___-18
 10
0.0
 20
0.0
 30
0.0
  0
TEXT
  5
2BD
  8
0
 62
     3
 10
2971.184583240955
 20
-3407.308081576084
 30
0.0
 40
43.53222656249999
  1
SWB 2640
  7
MS_UI_GOTHIC
 11
2971.184583240955
 21
-3363.775855013584
 31
0.0
 73
     3
  0
TEXT
  5
2BE
  8
0
 62
     3
 10
2971.184583240955
 20
-3509.308081576084
 30
0.0
 40
43.53222656249999
  1
SCB 2642
  7
MS_UI_GOTHIC
 11
2971.184583240955
 21
-3465.775855013584
 31
0.0
 73
     3
  0
TEXT
  5
2BF
  8
0
 62
     3
 10
2971.184583240955
 20
-4169.308081576083
 30
0.0
 40
43.53222656249999
  1
09050801
  7
MS_UI_GOTHIC
 11
2971.184583240955
 21
-4125.775855013583
 31
0.0
 73
     3
  0
TEXT
  5
2C0
  8
0
 62
     3
 10
2708.939521501671
 20
-4329.881421045397
 30
0.0
 40
43.53222656249999
  1
修正
  7
MS_UI_GOTHIC
 11
2708.939521501671
 21
-4286.349194482897
 31
0.0
 73
     3
  0
TEXT
  5
2C1
  8
0
 62
     3
 10
3217.290642442152
 20
-2991.56897807639
 30
0.0
 40
43.53222656249999
  1
497*397mm
  7
MS_UI_GOTHIC
 11
3217.290642442152
 21
-2948.03675151389
 31
0.0
 73
     3
  0
LINE
  5
2C2
  8
0
 62
    30
 10
3186.489875128685
 20
-3174.103614903534
 30
0.0
 11
3186.489875128685
 21
-3318.103614903534
 31
0.0
  0
TEXT
  5
2C3
  8
0
 62
     3
 10
3010.79137925143
 20
-3088.844478412761
 30
0.0
 40
36.27685546875
  1
※必ず現物合わせをして 
  7
MS_UI_GOTHIC
 11
3010.79137925143
 21
-3052.567622944011
 31
0.0
 73
     3
  0
TEXT
  5
2C4
  8
0
 62
     3
 10
3010.79137925143
 20
-3152.344478412761
 30
0.0
 40
36.27685546875
  1
　 取付してください。
  7
MS_UI_GOTHIC
 11
3010.79137925143
 21
-3116.067622944011
 31
0.0
 73
     3
  0
LINE
  5
2C5
  8
0
  6
CONTINUOUS
 62
    30
 10
2941.689875128689
 20
-2879.175972066619
 30
0.0
 11
2941.689875128689
 21
-3174.103614903534
 31
0.0
  0
TEXT
  5
2C6
  8
0
 62
     2
 10
2992.151288426049
 20
-2992.95797700671
 30
0.0
 40
43.53222656249999
  1
寸法
  7
MS_UI_GOTHIC
 11
2992.151288426049
 21
-2949.42575044421
 31
0.0
 73
     3
  0
VIEWPORT
  5
2C7
 67
     1
  8
0
 10
128.5
 20
97.5
 30
0.0
 40
314.226
 41
222.18
 68
     1
 69
     1
1001
ACAD
1000
MVIEW
1002
{
1070
    16
1010
0.0
1020
0.0
1030
0.0
1010
0.0
1020
0.0
1030
1.0
1040
0.0
1040
222.18
1040
128.5
1040
97.5
1040
50.0
1040
0.0
1040
0.0
1070
     0
1070
   100
1070
     0
1070
     3
1070
     0
1070
     0
1070
     0
1070
     0
1040
0.0
1040
0.0
1040
0.0
1040
10.0
1040
10.0
1040
10.0
1040
10.0
1070
     0
1002
{
1002
}
1002
}
  0
ENDSEC
  0
EOF
