  0
SECTION
  2
HEADER
  9
$ACADVER
  1
AC1009
  9
$INSBASE
 10
0.0
 20
0.0
 30
0.0
  9
$EXTMIN
 10
-104.794
 20
0.176045
 30
0.0
  9
$EXTMAX
 10
315.209
 20
297.178
 30
0.0
  9
$LIMMIN
 10
0.0
 20
0.0
  9
$LIMMAX
 10
12.0
 20
9.0
  9
$ORTHOMODE
 70
     0
  9
$REGENMODE
 70
     1
  9
$FILLMODE
 70
     1
  9
$QTEXTMODE
 70
     0
  9
$MIRRTEXT
 70
     1
  9
$DRAGMODE
 70
     2
  9
$LTSCALE
 40
1.0
  9
$OSMODE
 70
    37
  9
$ATTMODE
 70
     1
  9
$TEXTSIZE
 40
0.0
  9
$TRACEWID
 40
0.05
  9
$TEXTSTYLE
  7
STANDARD
  9
$CLAYER
  8
0
  9
$CELTYPE
  6
CONTINUOUS
  9
$CECOLOR
 62
   256
  9
$DIMSCALE
 40
1.0
  9
$DIMASZ
 40
0.18
  9
$DIMEXO
 40
0.0625
  9
$DIMDLI
 40
0.38
  9
$DIMRND
 40
0.0
  9
$DIMDLE
 40
0.0
  9
$DIMEXE
 40
0.18
  9
$DIMTP
 40
0.0
  9
$DIMTM
 40
0.0
  9
$DIMTXT
 40
0.18
  9
$DIMCEN
 40
0.09
  9
$DIMTSZ
 40
0.0
  9
$DIMTOL
 70
     0
  9
$DIMLIM
 70
     0
  9
$DIMTIH
 70
     1
  9
$DIMTOH
 70
     1
  9
$DIMSE1
 70
     0
  9
$DIMSE2
 70
     0
  9
$DIMTAD
 70
     0
  9
$DIMZIN
 70
     0
  9
$DIMBLK
  1

  9
$DIMASO
 70
     1
  9
$DIMSHO
 70
     1
  9
$DIMPOST
  1

  9
$DIMAPOST
  1

  9
$DIMALT
 70
     0
  9
$DIMALTD
 70
     2
  9
$DIMALTF
 40
25.399999999999999
  9
$DIMLFAC
 40
1.0
  9
$DIMTOFL
 70
     0
  9
$DIMTVP
 40
0.0
  9
$DIMTIX
 70
     0
  9
$DIMSOXD
 70
     0
  9
$DIMSAH
 70
     0
  9
$DIMBLK1
  1

  9
$DIMBLK2
  1

  9
$DIMSTYLE
  2
STANDARD
  9
$DIMCLRD
 70
     0
  9
$DIMCLRE
 70
     0
  9
$DIMCLRT
 70
     0
  9
$DIMTFAC
 40
1.0
  9
$DIMGAP
 40
0.09
  9
$LUNITS
 70
     2
  9
$LUPREC
 70
     4
  9
$SKETCHINC
 40
0.1
  9
$FILLETRAD
 40
0.0
  9
$AUNITS
 70
     0
  9
$AUPREC
 70
     0
  9
$MENU
  1
.
  9
$ELEVATION
 40
0.0
  9
$PELEVATION
 40
0.0
  9
$THICKNESS
 40
0.0
  9
$LIMCHECK
 70
     0
  9
$BLIPMODE
 70
     0
  9
$CHAMFERA
 40
0.0
  9
$CHAMFERB
 40
0.0
  9
$SKPOLY
 70
     0
  9
$TDCREATE
 40
2444972.375
  9
$TDUPDATE
 40
2459326.2117243628
  9
$TDINDWG
 40
0.0000557523
  9
$TDUSRTIMER
 40
0.0000557523
  9
$USRTIMER
 70
     1
  9
$ANGBASE
 50
0.0
  9
$ANGDIR
 70
     0
  9
$PDMODE
 70
     0
  9
$PDSIZE
 40
0.0
  9
$PLINEWID
 40
0.0
  9
$COORDS
 70
     1
  9
$SPLFRAME
 70
     0
  9
$SPLINETYPE
 70
     6
  9
$SPLINESEGS
 70
     8
  9
$ATTDIA
 70
     1
  9
$ATTREQ
 70
     1
  9
$HANDLING
 70
     1
  9
$HANDSEED
  5
85E
  9
$SURFTAB1
 70
     6
  9
$SURFTAB2
 70
     6
  9
$SURFTYPE
 70
     6
  9
$SURFU
 70
     6
  9
$SURFV
 70
     6
  9
$UCSNAME
  2

  9
$UCSORG
 10
0.0
 20
0.0
 30
0.0
  9
$UCSXDIR
 10
1.0
 20
0.0
 30
0.0
  9
$UCSYDIR
 10
0.0
 20
1.0
 30
0.0
  9
$PUCSNAME
  2

  9
$PUCSORG
 10
0.0
 20
0.0
 30
0.0
  9
$PUCSXDIR
 10
1.0
 20
0.0
 30
0.0
  9
$PUCSYDIR
 10
0.0
 20
1.0
 30
0.0
  9
$USERI1
 70
     0
  9
$USERI2
 70
     0
  9
$USERI3
 70
     0
  9
$USERI4
 70
     0
  9
$USERI5
 70
     0
  9
$USERR1
 40
0.0
  9
$USERR2
 40
0.0
  9
$USERR3
 40
0.0
  9
$USERR4
 40
0.0
  9
$USERR5
 40
0.0
  9
$WORLDVIEW
 70
     1
  9
$SHADEDGE
 70
     3
  9
$SHADEDIF
 70
    70
  9
$TILEMODE
 70
     1
  9
$MAXACTVP
 70
    48
  9
$PLIMCHECK
 70
     0
  9
$PEXTMIN
 10
1.0000000000000000E+020
 20
1.0000000000000000E+020
 30
1.0000000000000000E+020
  9
$PEXTMAX
 10
-1.0000000000000000E+020
 20
-1.0000000000000000E+020
 30
-1.0000000000000000E+020
  9
$PLIMMIN
 10
0.0
 20
0.0
  9
$PLIMMAX
 10
12.0
 20
9.0
  9
$UNITMODE
 70
     0
  9
$VISRETAIN
 70
     1
  9
$PLINEGEN
 70
     0
  9
$PSLTSCALE
 70
     1
  0
ENDSEC
  0
SECTION
  2
TABLES
  0
TABLE
  2
VPORT
 70
     1
  0
VPORT
  2
*ACTIVE
 70
     0
 10
0.0
 20
0.0
 11
1.0
 21
1.0
 12
159.5855372518389
 22
148.589
 13
0.0
 23
0.0
 14
1.0
 24
1.0
 15
0.0
 25
0.0
 16
0.0
 26
0.0
 36
1.0
 17
0.0
 27
0.0
 37
0.0
 40
257.34758213707039
 41
2.2294736842105261
 42
50.0
 43
0.0
 44
0.0
 50
0.0
 51
0.0
 71
     0
 72
   100
 73
     1
 74
     1
 75
     0
 76
     0
 77
     0
 78
     0
  0
ENDTAB
  0
TABLE
  2
LTYPE
 70
     3
  0
LTYPE
  2
CONTINUOUS
 70
     0
  3
Solid line
 72
    65
 73
     0
 40
0.0
  0
LTYPE
  2
AIGENLINE001
 70
     0
  3
generate AI->DXF Converter
 72
    65
 73
     4
 40
5.8561449999999988
 49
3.5278
 49
-0.776115
 49
0.776115
 49
-0.776115
  0
LTYPE
  2
AIGENLINE002
 70
     0
  3
generate AI->DXF Converter
 72
    65
 73
     6
 40
7.4083750000000004
 49
3.5278
 49
-0.776115
 49
0.776115
 49
-0.776115
 49
0.776115
 49
-0.776115
  0
ENDTAB
  0
TABLE
  2
LAYER
 70
     4
  0
LAYER
  2
0
 70
     0
 62
     7
  6
CONTINUOUS
  0
LAYER
  2
____
 70
     0
 62
     7
  6
CONTINUOUS
  0
LAYER
  2
_________1
 70
     0
 62
     7
  6
CONTINUOUS
  0
LAYER
  2
_________2
 70
     0
 62
     7
  6
CONTINUOUS
  0
ENDTAB
  0
TABLE
  2
STYLE
 70
     1
  0
STYLE
  2
STANDARD
 70
     0
 40
0.0
 41
0.0
 50
0.0
 71
     0
 42
0.0
  3
TXT
  4
EXTFONT.SHX
  0
ENDTAB
  0
TABLE
  2
VIEW
 70
     0
  0
ENDTAB
  0
TABLE
  2
UCS
 70
     0
  0
ENDTAB
  0
TABLE
  2
APPID
 70
     3
  0
APPID
  2
ACAD
 70
     0
  0
APPID
  2
ACAD_NAV_VCDISPLAY
 70
     0
  0
APPID
  2
ACAD_MLEADERVER
 70
     0
  0
ENDTAB
  0
TABLE
  2
DIMSTYLE
 70
     1
  0
DIMSTYLE
  2
STANDARD
 70
     0
  3

  4

  5

  6

  7

 40
1.0
 41
0.18
 42
0.0625
 43
0.38
 44
0.18
 45
0.0
 46
0.0
 47
0.0
 48
0.0
140
0.18
141
0.09
142
0.0
143
25.399999999999999
144
1.0
145
0.0
146
1.0
147
0.09
 71
     0
 72
     0
 73
     1
 74
     1
 75
     0
 76
     0
 77
     0
 78
     0
170
     0
171
     2
172
     0
173
     0
174
     0
175
     0
176
     0
177
     0
178
     0
  0
ENDTAB
  0
ENDSEC
  0
SECTION
  2
BLOCKS
  0
BLOCK
  8
0
  2
$MODEL_SPACE
 70
     0
 10
0.0
 20
0.0
 30
0.0
  3
$MODEL_SPACE
  1

  0
ENDBLK
  5
1A
  8
0
  0
BLOCK
 67
     1
  8
0
  2
$PAPER_SPACE
 70
     0
 10
0.0
 20
0.0
 30
0.0
  3
$PAPER_SPACE
  1

  0
ENDBLK
  5
17
 67
     1
  8
0
  0
BLOCK
  8
_________1
  2
AIGNBL02040026
 70
     0
 10
0.0
 20
0.0
 30
0.0
  3
AIGNBL02040026
  1

  0
LINE
  5
27
  8
_________1
 62
     7
 10
-35.6008
 20
25.392600000000002
 30
0.0
 11
-33.3904
 21
25.9848
 31
0.0
  0
LINE
  5
28
  8
_________1
 62
     7
 10
-33.3904
 20
25.9848
 30
0.0
 11
-35.6008
 21
26.577000000000002
 31
0.0
  0
LINE
  5
29
  8
_________1
 62
     7
 10
-35.6008
 20
26.577000000000002
 30
0.0
 11
-35.6008
 21
25.392600000000002
 31
0.0
  0
LINE
  5
2A
  8
_________1
 62
     7
 10
-44.643199999999993
 20
25.9848
 30
0.0
 11
-33.590600000000002
 21
25.9848
 31
0.0
  0
ENDBLK
  5
2B
  8
_________1
  0
BLOCK
  8
_________1
  2
AIGNBL0204002A
 70
     0
 10
0.0
 20
0.0
 30
0.0
  3
AIGNBL0204002A
  1

  0
LINE
  5
2E
  8
_________1
 62
     7
 10
54.881799999999991
 20
131.02799999999999
 30
0.0
 11
54.289200000000001
 21
133.24000000000001
 31
0.0
  0
LINE
  5
2F
  8
_________1
 62
     7
 10
54.289200000000001
 20
133.24000000000001
 30
0.0
 11
53.696599999999989
 21
131.02799999999999
 31
0.0
  0
LINE
  5
30
  8
_________1
 62
     7
 10
53.696599999999989
 20
131.02799999999999
 30
0.0
 11
54.881799999999991
 21
131.02799999999999
 31
0.0
  0
LINE
  5
31
  8
_________1
 62
     7
 10
53.711100000000002
 20
35.4482
 30
0.0
 11
54.303699999999992
 21
33.23640000000001
 31
0.0
  0
LINE
  5
32
  8
_________1
 62
     7
 10
54.303699999999992
 20
33.23640000000001
 30
0.0
 11
54.8962
 21
35.4482
 31
0.0
  0
LINE
  5
33
  8
_________1
 62
     7
 10
54.8962
 20
35.4482
 30
0.0
 11
53.711100000000002
 21
35.4482
 31
0.0
  0
LINE
  5
34
  8
_________1
 62
     7
 10
54.296399999999998
 20
133.238
 30
0.0
 11
54.296399999999998
 21
33.237499999999997
 31
0.0
  0
ENDBLK
  5
35
  8
_________1
  0
BLOCK
  8
_________1
  2
AIGNBL0204002E
 70
     0
 10
0.0
 20
0.0
 30
0.0
  3
AIGNBL0204002E
  1

  0
LINE
  5
38
  8
_________1
 62
     7
 10
65.958799999999997
 20
131.02799999999999
 30
0.0
 11
65.366299999999995
 21
133.24000000000001
 31
0.0
  0
LINE
  5
39
  8
_________1
 62
     7
 10
65.366299999999995
 20
133.24000000000001
 30
0.0
 11
64.773700000000005
 21
131.02799999999999
 31
0.0
  0
LINE
  5
3A
  8
_________1
 62
     7
 10
64.773700000000005
 20
131.02799999999999
 30
0.0
 11
65.958799999999997
 21
131.02799999999999
 31
0.0
  0
LINE
  5
3B
  8
_________1
 62
     7
 10
64.788200000000003
 20
127.44799999999999
 30
0.0
 11
65.380700000000004
 21
125.23699999999999
 31
0.0
  0
LINE
  5
3C
  8
_________1
 62
     7
 10
65.380700000000004
 20
125.23699999999999
 30
0.0
 11
65.973299999999995
 21
127.44799999999999
 31
0.0
  0
LINE
  5
3D
  8
_________1
 62
     7
 10
65.973299999999995
 20
127.44799999999999
 30
0.0
 11
64.788200000000003
 21
127.44799999999999
 31
0.0
  0
LINE
  5
3E
  8
_________1
 62
     7
 10
65.373500000000007
 20
133.238
 30
0.0
 11
65.373500000000007
 21
125.238
 31
0.0
  0
ENDBLK
  5
3F
  8
_________1
  0
BLOCK
  8
_________1
  2
AIGNBL02030025
 70
     0
 10
0.0
 20
0.0
 30
0.0
  3
AIGNBL02030025
  1

  0
INSERT
  5
42
  8
_________1
 62
     7
  2
AIGNBL02040026
 10
0.0
 20
0.0
 30
0.0
  0
ENDBLK
  5
43
  8
_________1
  0
BLOCK
  8
_________1
  2
AIGNBL02030029
 70
     0
 10
0.0
 20
0.0
 30
0.0
  3
AIGNBL02030029
  1

  0
INSERT
  5
46
  8
_________1
 62
     7
  2
AIGNBL0204002A
 10
0.0
 20
0.0
 30
0.0
  0
ENDBLK
  5
47
  8
_________1
  0
BLOCK
  8
_________1
  2
AIGNBL0203002D
 70
     0
 10
0.0
 20
0.0
 30
0.0
  3
AIGNBL0203002D
  1

  0
INSERT
  5
4A
  8
_________1
 62
     7
  2
AIGNBL0204002E
 10
0.0
 20
0.0
 30
0.0
  0
ENDBLK
  5
4B
  8
_________1
  0
BLOCK
  8
_________1
  2
AIGNBL02020005
 70
     0
 10
0.0
 20
0.0
 30
0.0
  3
AIGNBL02020005
  1

  0
LINE
  5
4E
  8
_________1
  6
AIGENLINE001
 62
     7
 10
78.251699999999985
 20
153.238
 30
0.0
 11
90.485699999999994
 21
166.82499999999999
 31
0.0
  0
ENDBLK
  5
4F
  8
_________1
  0
BLOCK
  8
_________1
  2
AIGNBL02020006
 70
     0
 10
0.0
 20
0.0
 30
0.0
  3
AIGNBL02020006
  1

  0
LINE
  5
52
  8
_________1
 62
     7
 10
90.816699999999997
 20
167.19300000000001
 30
0.0
 11
91.713499999999996
 21
168.18899999999999
 31
0.0
  0
ENDBLK
  5
53
  8
_________1
  0
BLOCK
  8
_________1
  2
AIGNBL02020009
 70
     0
 10
0.0
 20
0.0
 30
0.0
  3
AIGNBL02020009
  1

  0
LINE
  5
56
  8
_________1
  6
AIGENLINE001
 62
     7
 10
78.251999999999995
 20
153.238
 30
0.0
 11
60.863900000000001
 21
158.88800000000001
 31
0.0
  0
ENDBLK
  5
57
  8
_________1
  0
BLOCK
  8
_________1
  2
AIGNBL0202000A
 70
     0
 10
0.0
 20
0.0
 30
0.0
  3
AIGNBL0202000A
  1

  0
LINE
  5
5A
  8
_________1
 62
     7
 10
60.392899999999997
 20
159.041
 30
0.0
 11
59.118600000000001
 21
159.45500000000001
 31
0.0
  0
ENDBLK
  5
5B
  8
_________1
  0
BLOCK
  8
_________1
  2
AIGNBL0202000F
 70
     0
 10
0.0
 20
0.0
 30
0.0
  3
AIGNBL0202000F
  1

  0
LINE
  5
5E
  8
_________1
  6
AIGENLINE001
 62
     7
 10
78.251999999999995
 20
153.238
 30
0.0
 11
73.520200000000003
 21
170.898
 31
0.0
  0
ENDBLK
  5
5F
  8
_________1
  0
BLOCK
  8
_________1
  2
AIGNBL02020010
 70
     0
 10
0.0
 20
0.0
 30
0.0
  3
AIGNBL02020010
  1

  0
LINE
  5
62
  8
_________1
 62
     7
 10
73.3917
 20
171.37700000000001
 30
0.0
 11
73.045100000000005
 21
172.67099999999999
 31
0.0
  0
ENDBLK
  5
63
  8
_________1
  0
BLOCK
  8
_________1
  2
AIGNBL02020015
 70
     0
 10
0.0
 20
0.0
 30
0.0
  3
AIGNBL02020015
  1

  0
LINE
  5
66
  8
_________1
 62
     7
 10
83.449700000000007
 20
124.038
 30
0.0
 11
84.049800000000005
 21
124.438
 31
0.0
  0
LINE
  5
67
  8
_________1
 62
     7
 10
83.449700000000007
 20
120.238
 30
0.0
 11
83.449700000000007
 21
124.038
 31
0.0
  0
LINE
  5
68
  8
_________1
 62
     7
 10
82.249399999999994
 20
120.238
 30
0.0
 11
82.249399999999994
 21
124.438
 31
0.0
  0
LINE
  5
69
  8
_________1
 62
     7
 10
81.649299999999997
 20
120.238
 30
0.0
 11
81.649299999999997
 21
124.438
 31
0.0
  0
LINE
  5
6A
  8
_________1
 62
     7
 10
80.649500000000003
 20
120.238
 30
0.0
 11
80.649500000000003
 21
124.438
 31
0.0
  0
LINE
  5
6B
  8
_________1
 62
     7
 10
79.249399999999994
 20
120.238
 30
0.0
 11
79.249399999999994
 21
124.438
 31
0.0
  0
LINE
  5
6C
  8
_________1
 62
     7
 10
78.649299999999997
 20
120.238
 30
0.0
 11
78.649299999999997
 21
124.438
 31
0.0
  0
LINE
  5
6D
  8
_________1
 62
     7
 10
78.4495
 20
120.238
 30
0.0
 11
78.4495
 21
124.438
 31
0.0
  0
LINE
  5
6E
  8
_________1
 62
     7
 10
76.249399999999994
 20
120.238
 30
0.0
 11
76.249399999999994
 21
124.438
 31
0.0
  0
LINE
  5
6F
  8
_________1
 62
     7
 10
75.849100000000007
 20
120.238
 30
0.0
 11
73.449200000000005
 21
124.438
 31
0.0
  0
LINE
  5
70
  8
_________1
 62
     7
 10
75.249600000000001
 20
120.238
 30
0.0
 11
72.849100000000007
 21
124.438
 31
0.0
  0
LINE
  5
71
  8
_________1
 62
     7
 10
74.449700000000007
 20
120.238
 30
0.0
 11
74.449700000000007
 21
121.63800000000001
 31
0.0
  0
LINE
  5
72
  8
_________1
 62
     7
 10
72.849100000000007
 20
120.238
 30
0.0
 11
83.449700000000007
 21
120.238
 31
0.0
  0
LINE
  5
73
  8
_________1
 62
     7
 10
72.849100000000007
 20
120.238
 30
0.0
 11
72.849100000000007
 21
124.438
 31
0.0
  0
ENDBLK
  5
74
  8
_________1
  0
BLOCK
  8
_________1
  2
AIGNBL02020024
 70
     0
 10
0.0
 20
0.0
 30
0.0
  3
AIGNBL02020024
  1

  0
INSERT
  5
77
  8
_________1
 62
     7
  2
AIGNBL02030025
 10
0.0
 20
0.0
 30
0.0
  0
ENDBLK
  5
78
  8
_________1
  0
BLOCK
  8
_________1
  2
AIGNBL02020028
 70
     0
 10
0.0
 20
0.0
 30
0.0
  3
AIGNBL02020028
  1

  0
INSERT
  5
7B
  8
_________1
 62
     7
  2
AIGNBL02030029
 10
0.0
 20
0.0
 30
0.0
  0
ENDBLK
  5
7C
  8
_________1
  0
BLOCK
  8
_________1
  2
AIGNBL0202002C
 70
     0
 10
0.0
 20
0.0
 30
0.0
  3
AIGNBL0202002C
  1

  0
INSERT
  5
7F
  8
_________1
 62
     7
  2
AIGNBL0203002D
 10
0.0
 20
0.0
 30
0.0
  0
ENDBLK
  5
80
  8
_________1
  0
BLOCK
  8
_________1
  2
AIGNBL02020032
 70
     0
 10
0.0
 20
0.0
 30
0.0
  3
AIGNBL02020032
  1

  0
LINE
  5
83
  8
_________1
 62
     7
 10
-43.6066
 20
235.489
 30
0.0
 11
-45.335999999999999
 21
236.99000000000001
 31
0.0
  0
LINE
  5
84
  8
_________1
 62
     7
 10
-45.335999999999999
 20
236.99000000000001
 30
0.0
 11
-43.087699999999991
 21
236.55500000000001
 31
0.0
  0
LINE
  5
85
  8
_________1
 62
     7
 10
-43.087699999999991
 20
236.55500000000001
 30
0.0
 11
-43.6066
 21
235.489
 31
0.0
  0
ENDBLK
  5
86
  8
_________1
  0
BLOCK
  8
_________1
  2
AIGNBL02020033
 70
     0
 10
0.0
 20
0.0
 30
0.0
  3
AIGNBL02020033
  1

  0
ARC
  5
89
  8
_________1
 62
     7
 10
-31.553587
 20
262.08578999999997
 30
0.0
 40
28.631232000000001
 50
241.22459900000001
 51
269.92575699999998
  0
ENDBLK
  5
8A
  8
_________1
  0
BLOCK
  8
_________1
  2
AIGNBL02020035
 70
     0
 10
0.0
 20
0.0
 30
0.0
  3
AIGNBL02020035
  1

  0
LINE
  5
8D
  8
_________1
 62
     7
 10
-19.5748
 20
235.489
 30
0.0
 11
-17.845400000000001
 21
236.99000000000001
 31
0.0
  0
LINE
  5
8E
  8
_________1
 62
     7
 10
-17.845400000000001
 20
236.99000000000001
 30
0.0
 11
-20.093599999999999
 21
236.55500000000001
 31
0.0
  0
LINE
  5
8F
  8
_________1
 62
     7
 10
-20.093599999999999
 20
236.55500000000001
 30
0.0
 11
-19.5748
 21
235.489
 31
0.0
  0
ENDBLK
  5
90
  8
_________1
  0
BLOCK
  8
_________1
  2
AIGNBL02020036
 70
     0
 10
0.0
 20
0.0
 30
0.0
  3
AIGNBL02020036
  1

  0
ARC
  5
93
  8
_________1
 62
     7
 10
-31.627797000000001
 20
262.08578999999997
 30
0.0
 40
28.631232000000001
 50
270.07426299999997
 51
298.77542099999999
  0
ENDBLK
  5
94
  8
_________1
  0
BLOCK
  8
_________1
  2
AIGNBL0202006A
 70
     0
 10
0.0
 20
0.0
 30
0.0
  3
AIGNBL0202006A
  1

  0
LINE
  5
97
  8
_________1
 62
     7
 10
74.632599999999996
 20
257.44200000000001
 30
0.0
 11
75.776700000000005
 21
259.42399999999998
 31
0.0
  0
LINE
  5
98
  8
_________1
 62
     7
 10
75.776700000000005
 20
259.42399999999998
 30
0.0
 11
73.794799999999995
 21
258.27999999999997
 31
0.0
  0
LINE
  5
99
  8
_________1
 62
     7
 10
73.794799999999995
 20
258.27999999999997
 30
0.0
 11
74.632599999999996
 21
257.44200000000001
 31
0.0
  0
LINE
  5
9A
  8
_________1
 62
     7
 10
71.569199999999995
 20
255.21600000000001
 30
0.0
 11
75.776700000000005
 21
259.42399999999998
 31
0.0
  0
ENDBLK
  5
9B
  8
_________1
  0
BLOCK
  8
_________1
  2
AIGNBL0202006B
 70
     0
 10
0.0
 20
0.0
 30
0.0
  3
AIGNBL0202006B
  1

  0
LINE
  5
9E
  8
_________1
 62
     7
 10
81.870799999999988
 20
266.35599999999999
 30
0.0
 11
80.726699999999994
 21
264.37400000000002
 31
0.0
  0
LINE
  5
9F
  8
_________1
 62
     7
 10
80.726699999999994
 20
264.37400000000002
 30
0.0
 11
82.708699999999993
 21
265.51799999999997
 31
0.0
  0
LINE
  5
A0
  8
_________1
 62
     7
 10
82.708699999999993
 20
265.51799999999997
 30
0.0
 11
81.870799999999988
 21
266.35599999999999
 31
0.0
  0
LINE
  5
A1
  8
_________1
 62
     7
 10
80.726699999999994
 20
264.37400000000002
 30
0.0
 11
83.681600000000003
 21
267.32900000000001
 31
0.0
  0
ENDBLK
  5
A2
  8
_________1
  0
BLOCK
  8
_________1
  2
AIGNBL02010002
 70
     0
 10
0.0
 20
0.0
 30
0.0
  3
AIGNBL02010002
  1

  0
LINE
  5
A5
  8
_________1
 62
     7
 10
90.482200000000006
 20
142.58600000000001
 30
0.0
 11
61.391999999999989
 21
142.58600000000001
 31
0.0
  0
ENDBLK
  5
A6
  8
_________1
  0
BLOCK
  8
_________1
  2
AIGNBL02010003
 70
     0
 10
0.0
 20
0.0
 30
0.0
  3
AIGNBL02010003
  1

  0
LINE
  5
A9
  8
_________1
  6
AIGENLINE002
 62
     7
 10
90.422600000000003
 20
165.559
 30
0.0
 11
90.482200000000006
 21
165.77500000000001
 31
0.0
  0
LINE
  5
AA
  8
_________1
  6
AIGENLINE002
 62
     7
 10
89.233699999999999
 20
166.63
 30
0.0
 11
89.441800000000015
 21
166.71100000000001
 31
0.0
  0
LINE
  5
AB
  8
_________1
  6
AIGENLINE002
 62
     7
 10
80.757000000000005
 20
157.21600000000001
 30
0.0
 11
89.233699999999999
 21
166.63
 31
0.0
  0
LINE
  5
AC
  8
_________1
  6
AIGENLINE002
 62
     7
 10
89.233699999999999
 20
166.63
 30
0.0
 11
90.422600000000003
 21
165.559
 31
0.0
  0
LINE
  5
AD
  8
_________1
  6
AIGENLINE002
 62
     7
 10
89.441800000000015
 20
166.71100000000001
 30
0.0
 11
90.482200000000006
 21
165.77500000000001
 31
0.0
  0
LINE
  5
AE
  8
_________1
  6
AIGENLINE002
 62
     7
 10
90.422600000000003
 20
165.559
 30
0.0
 11
81.945899999999995
 21
156.14500000000001
 31
0.0
  0
ENDBLK
  5
AF
  8
_________1
  0
BLOCK
  8
_________1
  2
AIGNBL02010004
 70
     0
 10
0.0
 20
0.0
 30
0.0
  3
AIGNBL02010004
  1

  0
INSERT
  5
B2
  8
_________1
 62
     7
  2
AIGNBL02020005
 10
0.0
 20
0.0
 30
0.0
  0
INSERT
  5
B3
  8
_________1
 62
     7
  2
AIGNBL02020006
 10
0.0
 20
0.0
 30
0.0
  0
ENDBLK
  5
B4
  8
_________1
  0
BLOCK
  8
_________1
  2
AIGNBL02010007
 70
     0
 10
0.0
 20
0.0
 30
0.0
  3
AIGNBL02010007
  1

  0
LINE
  5
B7
  8
_________1
  6
AIGENLINE002
 62
     7
 10
62.045900000000003
 20
159.346
 30
0.0
 11
61.8247
 21
159.31200000000001
 31
0.0
  0
LINE
  5
B8
  8
_________1
  6
AIGENLINE002
 62
     7
 10
61.55149999999999
 20
157.82400000000001
 30
0.0
 11
61.392299999999999
 21
157.98099999999999
 31
0.0
  0
LINE
  5
B9
  8
_________1
  6
AIGENLINE002
 62
     7
 10
73.599400000000003
 20
153.90899999999999
 30
0.0
 11
61.55149999999999
 21
157.82400000000001
 31
0.0
  0
LINE
  5
BA
  8
_________1
  6
AIGENLINE002
 62
     7
 10
61.55149999999999
 20
157.82400000000001
 30
0.0
 11
62.045900000000003
 21
159.346
 31
0.0
  0
LINE
  5
BB
  8
_________1
  6
AIGENLINE002
 62
     7
 10
61.392299999999999
 20
157.98099999999999
 30
0.0
 11
61.8247
 21
159.31200000000001
 31
0.0
  0
LINE
  5
BC
  8
_________1
  6
AIGENLINE002
 62
     7
 10
62.045900000000003
 20
159.346
 30
0.0
 11
74.094099999999997
 21
155.43100000000001
 31
0.0
  0
ENDBLK
  5
BD
  8
_________1
  0
BLOCK
  8
_________1
  2
AIGNBL02010008
 70
     0
 10
0.0
 20
0.0
 30
0.0
  3
AIGNBL02010008
  1

  0
INSERT
  5
C0
  8
_________1
 62
     7
  2
AIGNBL02020009
 10
0.0
 20
0.0
 30
0.0
  0
INSERT
  5
C1
  8
_________1
 62
     7
  2
AIGNBL0202000A
 10
0.0
 20
0.0
 30
0.0
  0
ENDBLK
  5
C2
  8
_________1
  0
BLOCK
  8
_________1
  2
AIGNBL0201000B
 70
     0
 10
0.0
 20
0.0
 30
0.0
  3
AIGNBL0201000B
  1

  0
LINE
  5
C5
  8
_________1
 62
     7
 10
74.547499999999999
 20
170.15599999999989
 30
0.0
 11
74.399000000000001
 21
170.32300000000001
 31
0.0
  0
LINE
  5
C6
  8
_________1
 62
     7
 10
73.001999999999995
 20
169.74199999999999
 30
0.0
 11
73.046800000000005
 21
169.96100000000001
 31
0.0
  0
LINE
  5
C7
  8
_________1
 62
     7
 10
76.280799999999999
 20
157.506
 30
0.0
 11
73.001999999999995
 21
169.74199999999999
 31
0.0
  0
LINE
  5
C8
  8
_________1
 62
     7
 10
73.001999999999995
 20
169.74199999999999
 30
0.0
 11
74.547499999999999
 21
170.15599999999989
 31
0.0
  0
LINE
  5
C9
  8
_________1
 62
     7
 10
73.046800000000005
 20
169.96100000000001
 30
0.0
 11
74.399000000000001
 21
170.32300000000001
 31
0.0
  0
LINE
  5
CA
  8
_________1
 62
     7
 10
74.547499999999999
 20
170.15599999999989
 30
0.0
 11
77.8262
 21
157.91999999999999
 31
0.0
  0
ENDBLK
  5
CB
  8
_________1
  0
BLOCK
  8
_________1
  2
AIGNBL0201000C
 70
     0
 10
0.0
 20
0.0
 30
0.0
  3
AIGNBL0201000C
  1

  0
LINE
  5
CE
  8
_________1
 62
     7
 10
89.337400000000002
 20
168.83799999999999
 30
0.0
 11
91.396199999999979
 21
167.83600000000001
 31
0.0
  0
LINE
  5
CF
  8
_________1
 62
     7
 10
91.396199999999979
 20
167.83600000000001
 30
0.0
 11
90.113600000000005
 21
169.733
 31
0.0
  0
LINE
  5
D0
  8
_________1
 62
     7
 10
90.113600000000005
 20
169.733
 30
0.0
 11
89.337400000000002
 21
168.83799999999999
 31
0.0
  0
LINE
  5
D1
  8
_________1
 62
     7
 10
75.200699999999998
 20
173.268
 30
0.0
 11
73.166700000000006
 21
172.21700000000001
 31
0.0
  0
LINE
  5
D2
  8
_________1
 62
     7
 10
73.166700000000006
 20
172.21700000000001
 30
0.0
 11
75.454300000000003
 21
172.11099999999999
 31
0.0
  0
LINE
  5
D3
  8
_________1
 62
     7
 10
75.454300000000003
 20
172.11099999999999
 30
0.0
 11
75.200699999999998
 21
173.268
 31
0.0
  0
ENDBLK
  5
D4
  8
_________1
  0
BLOCK
  8
_________1
  2
AIGNBL0201000D
 70
     0
 10
0.0
 20
0.0
 30
0.0
  3
AIGNBL0201000D
  1

  0
LINE
  5
D7
  8
_________1
 62
     7
 10
71.238500000000002
 20
170.982
 30
0.0
 11
73.166700000000006
 21
172.21700000000001
 31
0.0
  0
LINE
  5
D8
  8
_________1
 62
     7
 10
73.166700000000006
 20
172.21700000000001
 30
0.0
 11
70.879199999999997
 21
172.11099999999999
 31
0.0
  0
LINE
  5
D9
  8
_________1
 62
     7
 10
70.879199999999997
 20
172.11099999999999
 30
0.0
 11
71.238500000000002
 21
170.982
 31
0.0
  0
LINE
  5
DA
  8
_________1
 62
     7
 10
59.820999999999998
 20
161.58500000000001
 30
0.0
 11
59.5657
 21
159.31
 31
0.0
  0
LINE
  5
DB
  8
_________1
 62
     7
 10
59.5657
 20
159.31
 30
0.0
 11
60.924100000000003
 21
161.15299999999999
 31
0.0
  0
LINE
  5
DC
  8
_________1
 62
     7
 10
60.924100000000003
 20
161.15299999999999
 30
0.0
 11
59.820999999999998
 21
161.58500000000001
 31
0.0
  0
ENDBLK
  5
DD
  8
_________1
  0
BLOCK
  8
_________1
  2
AIGNBL0201000E
 70
     0
 10
0.0
 20
0.0
 30
0.0
  3
AIGNBL0201000E
  1

  0
INSERT
  5
E0
  8
_________1
 62
     7
  2
AIGNBL0202000F
 10
0.0
 20
0.0
 30
0.0
  0
INSERT
  5
E1
  8
_________1
 62
     7
  2
AIGNBL02020010
 10
0.0
 20
0.0
 30
0.0
  0
ENDBLK
  5
E2
  8
_________1
  0
BLOCK
  8
_________1
  2
AIGNBL02010011
 70
     0
 10
0.0
 20
0.0
 30
0.0
  3
AIGNBL02010011
  1

  0
LINE
  5
E5
  8
_________1
  6
AIGENLINE002
 62
     7
 10
-6.1588399999999996
 20
167.745
 30
0.0
 11
-6.2559899999999988
 21
168.011
 31
0.0
  0
LINE
  5
E6
  8
_________1
  6
AIGENLINE002
 62
     7
 10
-7.6092300000000002
 20
168.42099999999999
 30
0.0
 11
-7.3432699999999986
 21
168.518
 31
0.0
  0
LINE
  5
E7
  8
_________1
  6
AIGENLINE002
 62
     7
 10
-7.3432699999999986
 20
168.518
 30
0.0
 11
-6.2559899999999988
 21
168.011
 31
0.0
  0
LINE
  5
E8
  8
_________1
  6
AIGENLINE002
 62
     7
 10
-6.1588399999999996
 20
167.745
 30
0.0
 11
-11.484
 21
156.32599999999999
 31
0.0
  0
LINE
  5
E9
  8
_________1
  6
AIGENLINE002
 62
     7
 10
-7.6092300000000002
 20
168.42099999999999
 30
0.0
 11
-12.933999999999999
 21
157.00200000000001
 31
0.0
  0
ARC
  5
EA
  8
_________1
  6
AIGENLINE002
 62
     7
 10
-11.374052000000001
 20
156.08339599999999
 30
0.0
 40
0.198106
 50
335.67700400000001
 51
343.02901800000001
  0
ARC
  5
EB
  8
_________1
  6
AIGENLINE002
 62
     7
 10
-11.424977
 20
156.09036499999999
 30
0.0
 40
0.248983
 50
344.91614099999998
 51
350.99871200000001
  0
ARC
  5
EC
  8
_________1
  6
AIGENLINE002
 62
     7
 10
-11.396686000000001
 20
156.07014100000001
 30
0.0
 40
0.21843
 50
355.08048700000001
 51
1.864461999999999
  0
ARC
  5
ED
  8
_________1
  6
AIGENLINE002
 62
     7
 10
-11.301917
 20
156.07781900000001
 30
0.0
 40
0.123546
 50
359.73516000000001
 51
12.127891999999999
  0
ARC
  5
EE
  8
_________1
  6
AIGENLINE002
 62
     7
 10
-11.310561999999999
 20
156.08371199999999
 30
0.0
 40
0.130979
 50
8.8112570000000012
 51
20.675865000000002
  0
ARC
  5
EF
  8
_________1
  6
AIGENLINE002
 62
     7
 10
-11.338331
 20
156.08288400000001
 30
0.0
 40
0.157512
 50
17.389182999999999
 51
27.29210800000001
  0
ARC
  5
F0
  8
_________1
  6
AIGENLINE002
 62
     7
 10
-11.503710999999999
 20
155.996613
 30
0.0
 40
0.34404
 50
27.431417
 51
32.058338999999997
  0
ARC
  5
F1
  8
_________1
  6
AIGENLINE002
 62
     7
 10
-11.814295
 20
155.71900600000001
 30
0.0
 40
0.75789
 50
37.389848000000001
 51
39.484746999999999
  0
ARC
  5
F2
  8
_________1
  6
AIGENLINE002
 62
     7
 10
-11.64794
 20
155.781015
 30
0.0
 40
0.5929050000000001
 50
45.091056000000002
 51
47.846536000000008
  0
ARC
  5
F3
  8
_________1
  6
AIGENLINE002
 62
     7
 10
-12.015313000000001
 20
155.17673600000001
 30
0.0
 40
1.294308999999999
 50
53.753014
 51
55.009993999999999
  0
ARC
  5
F4
  8
_________1
  6
AIGENLINE002
 62
     7
 10
-11.367727
 20
156.09025800000001
 30
0.0
 40
0.174685
 50
57.205461999999997
 51
66.568106999999998
  0
ARC
  5
F5
  8
_________1
  6
AIGENLINE002
 62
     7
 10
-15.189821999999999
 20
147.92260400000001
 30
0.0
 40
0.207474
 50
247.1217740000001
 51
333.05911200000003
  0
LINE
  5
F6
  8
_________1
  6
AIGENLINE002
 62
     7
 10
-11.1935
 20
156.00200000000001
 30
0.0
 11
-15.004899999999999
 21
147.82900000000001
 31
0.0
  0
LINE
  5
F7
  8
_________1
  6
AIGENLINE002
 62
     7
 10
-13.6547
 20
157.34999999999999
 30
0.0
 11
-17.627300000000002
 21
148.83000000000001
 31
0.0
  0
LINE
  5
F8
  8
_________1
  6
AIGENLINE002
 62
     7
 10
-17.627300000000002
 20
148.83000000000001
 30
0.0
 11
-17.626899999999999
 21
148.83000000000001
 31
0.0
  0
LINE
  5
F9
  8
_________1
  6
AIGENLINE002
 62
     7
 10
-17.626899999999999
 20
148.83000000000001
 30
0.0
 11
-15.2705
 21
147.73099999999999
 31
0.0
  0
LINE
  5
FA
  8
_________1
  6
AIGENLINE002
 62
     7
 10
-13.6547
 20
157.34999999999999
 30
0.0
 11
-11.2979
 21
156.251
 31
0.0
  0
ENDBLK
  5
FB
  8
_________1
  0
BLOCK
  8
_________1
  2
AIGNBL02010012
 70
     0
 10
0.0
 20
0.0
 30
0.0
  3
AIGNBL02010012
  1

  0
LINE
  5
FE
  8
_________1
 62
     7
 10
-40.090499999999999
 20
124.437
 30
0.0
 11
-36.490699999999997
 21
120.236
 31
0.0
  0
LINE
  5
FF
  8
_________1
 62
     7
 10
-23.290700000000001
 20
124.437
 30
0.0
 11
-26.890499999999999
 21
120.236
 31
0.0
  0
LINE
  5
100
  8
_________1
 62
     7
 10
-29.590800000000002
 20
124.437
 30
0.0
 11
-29.590800000000002
 21
120.236
 31
0.0
  0
LINE
  5
101
  8
_________1
 62
     7
 10
-33.790700000000001
 20
120.236
 30
0.0
 11
-33.790700000000001
 21
124.437
 31
0.0
  0
LINE
  5
102
  8
_________1
 62
     7
 10
-30.1906
 20
124.437
 30
0.0
 11
-30.1906
 21
120.236
 31
0.0
  0
LINE
  5
103
  8
_________1
 62
     7
 10
-33.190600000000003
 20
120.236
 30
0.0
 11
-33.190600000000003
 21
124.437
 31
0.0
  0
LINE
  5
104
  8
_________1
 62
     7
 10
-30.590599999999998
 20
124.437
 30
0.0
 11
-30.590599999999998
 21
120.236
 31
0.0
  0
LINE
  5
105
  8
_________1
 62
     7
 10
-32.790599999999998
 20
120.236
 30
0.0
 11
-32.790599999999998
 21
124.437
 31
0.0
  0
LINE
  5
106
  8
_________1
 62
     7
 10
-28.1907
 20
124.437
 30
0.0
 11
-28.1907
 21
120.236
 31
0.0
  0
LINE
  5
107
  8
_________1
 62
     7
 10
-35.19080000000001
 20
120.236
 30
0.0
 11
-35.19080000000001
 21
124.437
 31
0.0
  0
LINE
  5
108
  8
_________1
 62
     7
 10
-26.290700000000001
 20
120.93600000000001
 30
0.0
 11
-26.290700000000001
 21
120.236
 31
0.0
  0
LINE
  5
109
  8
_________1
 62
     7
 10
-26.290700000000001
 20
120.236
 30
0.0
 11
-37.090499999999999
 21
120.236
 31
0.0
  0
LINE
  5
10A
  8
_________1
 62
     7
 10
-37.090499999999999
 20
120.236
 30
0.0
 11
-37.090499999999999
 21
120.93600000000001
 31
0.0
  0
ENDBLK
  5
10B
  8
_________1
  0
BLOCK
  8
_________1
  2
AIGNBL02010013
 70
     0
 10
0.0
 20
0.0
 30
0.0
  3
AIGNBL02010013
  1

  0
LINE
  5
10E
  8
_________1
 62
     7
 10
-22.6906
 20
124.43600000000001
 30
0.0
 11
-40.690600000000003
 21
124.43600000000001
 31
0.0
  0
LINE
  5
10F
  8
_________1
 62
     7
 10
-40.690600000000003
 20
124.43600000000001
 30
0.0
 11
-40.690600000000003
 21
125.236
 31
0.0
  0
LINE
  5
110
  8
_________1
 62
     7
 10
-40.690600000000003
 20
125.236
 30
0.0
 11
-22.6906
 21
125.236
 31
0.0
  0
LINE
  5
111
  8
_________1
 62
     7
 10
-22.6906
 20
125.236
 30
0.0
 11
-22.6906
 21
124.43600000000001
 31
0.0
  0
ENDBLK
  5
112
  8
_________1
  0
BLOCK
  8
_________1
  2
AIGNBL02010014
 70
     0
 10
0.0
 20
0.0
 30
0.0
  3
AIGNBL02010014
  1

  0
LINE
  5
115
  8
_________1
 62
     7
 10
84.049800000000005
 20
124.438
 30
0.0
 11
72.449399999999983
 21
124.438
 31
0.0
  0
LINE
  5
116
  8
_________1
 62
     7
 10
72.449399999999983
 20
124.438
 30
0.0
 11
72.449399999999983
 21
125.238
 31
0.0
  0
LINE
  5
117
  8
_________1
 62
     7
 10
72.449399999999983
 20
125.238
 30
0.0
 11
84.049800000000005
 21
125.238
 31
0.0
  0
LINE
  5
118
  8
_________1
 62
     7
 10
84.049800000000005
 20
125.238
 30
0.0
 11
84.049800000000005
 21
124.438
 31
0.0
  0
INSERT
  5
119
  8
_________1
 62
     7
  2
AIGNBL02020015
 10
0.0
 20
0.0
 30
0.0
  0
ENDBLK
  5
11A
  8
_________1
  0
BLOCK
  8
_________1
  2
AIGNBL02010016
 70
     0
 10
0.0
 20
0.0
 30
0.0
  3
AIGNBL02010016
  1

  0
ARC
  5
11D
  8
_________1
 62
     7
 10
78.251705000000001
 20
153.23812599999999
 30
0.0
 40
4.7001739999999987
 50
90.0
 51
179.99996999999999
  0
ARC
  5
11E
  8
_________1
 62
     7
 10
78.251704000000004
 20
153.23812599999999
 30
0.0
 40
4.7001739999999987
 50
0.00001
 51
89.999980000000008
  0
ARC
  5
11F
  8
_________1
 62
     7
 10
78.251875999999996
 20
153.23830000000001
 30
0.0
 40
4.7000019999999987
 50
269.99792000000002
 51
359.99788999999998
  0
ARC
  5
120
  8
_________1
 62
     7
 10
78.251531
 20
153.23829799999999
 30
0.0
 40
4.7000000000000002
 50
180.00210999999999
 51
270.00211999999999
  0
ENDBLK
  5
121
  8
_________1
  0
BLOCK
  8
_________1
  2
AIGNBL02010017
 70
     0
 10
0.0
 20
0.0
 30
0.0
  3
AIGNBL02010017
  1

  0
ARC
  5
124
  8
_________1
 62
     7
 10
78.251878000000005
 20
153.23829799999999
 30
0.0
 40
4.5001850000000001
 50
90.002193000000034
 51
180.00220300000001
  0
ARC
  5
125
  8
_________1
 62
     7
 10
78.251531
 20
153.23829799999999
 30
0.0
 40
4.5001850000000001
 50
359.997817
 51
89.997787000000002
  0
ARC
  5
126
  8
_________1
 62
     7
 10
78.251704000000004
 20
153.23812799999999
 30
0.0
 40
4.500013
 50
270.00002000000001
 51
359.99999000000003
  0
ARC
  5
127
  8
_________1
 62
     7
 10
78.251704000000004
 20
153.23812599999999
 30
0.0
 40
4.5000109999999989
 50
179.99996999999999
 51
270.00002000000001
  0
ENDBLK
  5
128
  8
_________1
  0
BLOCK
  8
_________1
  2
AIGNBL02010018
 70
     0
 10
0.0
 20
0.0
 30
0.0
  3
AIGNBL02010018
  1

  0
ARC
  5
12B
  8
_________1
 62
     7
 10
-12.938056
 20
157.76677599999999
 30
0.0
 40
0.166317
 50
359.98526700000002
 51
9.0427090000000003
  0
ARC
  5
12C
  8
_________1
 62
     7
 10
-12.970305
 20
157.759615
 30
0.0
 40
0.199302
 50
9.6188440000000011
 51
16.950886000000001
  0
ARC
  5
12D
  8
_________1
 62
     7
 10
-12.938675
 20
157.768089
 30
0.0
 40
0.166578
 50
17.334595999999991
 51
26.542359999999999
  0
ARC
  5
12E
  8
_________1
 62
     7
 10
-13.048335
 20
157.70129399999999
 30
0.0
 40
0.294724
 50
28.633132
 51
33.803666999999997
  0
ARC
  5
12F
  8
_________1
 62
     7
 10
-13.020814
 20
157.701626
 30
0.0
 40
0.272087
 50
36.971366000000003
 51
42.639766999999992
  0
ARC
  5
130
  8
_________1
 62
     7
 10
-12.989255999999999
 20
157.717985
 30
0.0
 40
0.237975
 50
44.889771000000003
 51
51.354480000000002
  0
ARC
  5
131
  8
_________1
 62
     7
 10
-12.928906
 20
157.80002300000001
 30
0.0
 40
0.136274
 50
49.631396999999993
 51
61.424163
  0
ARC
  5
132
  8
_________1
 62
     7
 10
-12.950526999999999
 20
157.777095
 30
0.0
 40
0.166943
 50
58.670454000000007
 51
68.199430000000007
  0
ARC
  5
133
  8
_________1
 62
     7
 10
-12.991720000000001
 20
157.66730999999999
 30
0.0
 40
0.284186
 50
68.708456999999996
 51
74.421629999999993
  0
ARC
  5
134
  8
_________1
 62
     7
 10
-12.958284000000001
 20
157.797346
 30
0.0
 40
0.149972
 50
73.384447999999992
 51
84.26785799999999
  0
ARC
  5
135
  8
_________1
 62
     7
 10
-12.971717
 20
157.75235900000001
 30
0.0
 40
0.196277
 50
81.677194999999998
 51
89.952954000000005
  0
ENDBLK
  5
136
  8
_________1
  0
BLOCK
  8
_________1
  2
AIGNBL02010019
 70
     0
 10
0.0
 20
0.0
 30
0.0
  3
AIGNBL02010019
  1

  0
ARC
  5
139
  8
_________1
 62
     7
 10
-12.979620000000001
 20
148.75650099999999
 30
0.0
 40
0.208024
 50
272.22168199999999
 51
357.877028
  0
ENDBLK
  5
13A
  8
_________1
  0
BLOCK
  8
_________1
  2
AIGNBL0201001A
 70
     0
 10
0.0
 20
0.0
 30
0.0
  3
AIGNBL0201001A
  1

  0
LINE
  5
13D
  8
_________1
 62
     7
 10
-12.771699999999999
 20
157.767
 30
0.0
 11
-12.771699999999999
 21
148.749
 31
0.0
  0
ENDBLK
  5
13E
  8
_________1
  0
BLOCK
  8
_________1
  2
AIGNBL0201001B
 70
     0
 10
0.0
 20
0.0
 30
0.0
  3
AIGNBL0201001B
  1

  0
LINE
  5
141
  8
_________1
 62
     7
 10
-15.571899999999999
 20
148.54900000000001
 30
0.0
 11
-15.571899999999999
 21
157.94900000000001
 31
0.0
  0
ENDBLK
  5
142
  8
_________1
  0
BLOCK
  8
_________1
  2
AIGNBL0201001C
 70
     0
 10
0.0
 20
0.0
 30
0.0
  3
AIGNBL0201001C
  1

  0
LINE
  5
145
  8
_________1
 62
     7
 10
-15.571899999999999
 20
157.94900000000001
 30
0.0
 11
-12.9716
 21
157.94900000000001
 31
0.0
  0
ENDBLK
  5
146
  8
_________1
  0
BLOCK
  8
_________1
  2
AIGNBL0201001D
 70
     0
 10
0.0
 20
0.0
 30
0.0
  3
AIGNBL0201001D
  1

  0
LINE
  5
149
  8
_________1
 62
     7
 10
-15.5716
 20
148.54900000000001
 30
0.0
 11
-12.9716
 21
148.54900000000001
 31
0.0
  0
ENDBLK
  5
14A
  8
_________1
  0
BLOCK
  8
_________1
  2
AIGNBL0201001E
 70
     0
 10
0.0
 20
0.0
 30
0.0
  3
AIGNBL0201001E
  1

  0
LINE
  5
14D
  8
_________1
 62
     7
 10
80.651600000000002
 20
159.38800000000001
 30
0.0
 11
77.4328
 21
159.38800000000001
 31
0.0
  0
ENDBLK
  5
14E
  8
_________1
  0
BLOCK
  8
_________1
  2
AIGNBL0201001F
 70
     0
 10
0.0
 20
0.0
 30
0.0
  3
AIGNBL0201001F
  1

  0
LINE
  5
151
  8
_________1
 62
     7
 10
80.651600000000002
 20
159.33799999999999
 30
0.0
 11
77.446200000000005
 21
159.33799999999999
 31
0.0
  0
ENDBLK
  5
152
  8
_________1
  0
BLOCK
  8
_________1
  2
AIGNBL02010020
 70
     0
 10
0.0
 20
0.0
 30
0.0
  3
AIGNBL02010020
  1

  0
ARC
  5
155
  8
_________1
 62
     7
 10
78.251878000000005
 20
153.23829799999999
 30
0.0
 40
4.5001850000000001
 50
90.002193000000034
 51
180.00220300000001
  0
ARC
  5
156
  8
_________1
 62
     7
 10
78.251531
 20
153.23829799999999
 30
0.0
 40
4.5001850000000001
 50
359.997817
 51
89.997787000000002
  0
ARC
  5
157
  8
_________1
 62
     7
 10
78.251704000000004
 20
153.23812799999999
 30
0.0
 40
4.500013
 50
270.00002000000001
 51
359.99999000000003
  0
ARC
  5
158
  8
_________1
 62
     7
 10
78.251704000000004
 20
153.23812599999999
 30
0.0
 40
4.5000109999999989
 50
179.99996999999999
 51
270.00002000000001
  0
ENDBLK
  5
159
  8
_________1
  0
BLOCK
  8
_________1
  2
AIGNBL02010021
 70
     0
 10
0.0
 20
0.0
 30
0.0
  3
AIGNBL02010021
  1

  0
LINE
  5
15C
  8
_________1
 62
     7
 10
83.762500000000003
 20
128.11699999999999
 30
0.0
 11
81.551400000000015
 21
127.524
 31
0.0
  0
LINE
  5
15D
  8
_________1
 62
     7
 10
81.551400000000015
 20
127.524
 30
0.0
 11
83.762500000000003
 21
126.932
 31
0.0
  0
LINE
  5
15E
  8
_________1
 62
     7
 10
83.762500000000003
 20
126.932
 30
0.0
 11
83.762500000000003
 21
128.11699999999999
 31
0.0
  0
LINE
  5
15F
  8
_________1
 62
     7
 10
72.741900000000001
 20
126.946
 30
0.0
 11
74.952299999999994
 21
127.539
 31
0.0
  0
LINE
  5
160
  8
_________1
 62
     7
 10
74.952299999999994
 20
127.539
 30
0.0
 11
72.741900000000001
 21
128.131
 31
0.0
  0
LINE
  5
161
  8
_________1
 62
     7
 10
72.741900000000001
 20
128.131
 30
0.0
 11
72.741900000000001
 21
126.946
 31
0.0
  0
LINE
  5
162
  8
_________1
 62
     7
 10
71.308099999999996
 20
127.532
 30
0.0
 11
89.217200000000005
 21
127.532
 31
0.0
  0
ENDBLK
  5
163
  8
_________1
  0
BLOCK
  8
_________1
  2
AIGNBL02010022
 70
     0
 10
0.0
 20
0.0
 30
0.0
  3
AIGNBL02010022
  1

  0
LINE
  5
166
  8
_________1
 62
     7
 10
-27.579499999999999
 20
26.577000000000002
 30
0.0
 11
-29.789899999999999
 21
25.9848
 31
0.0
  0
LINE
  5
167
  8
_________1
 62
     7
 10
-29.789899999999999
 20
25.9848
 30
0.0
 11
-27.579499999999999
 21
25.392600000000002
 31
0.0
  0
LINE
  5
168
  8
_________1
 62
     7
 10
-27.579499999999999
 20
25.392600000000002
 30
0.0
 11
-27.579499999999999
 21
26.577000000000002
 31
0.0
  0
LINE
  5
169
  8
_________1
 62
     7
 10
-29.789899999999999
 20
25.9848
 30
0.0
 11
-26.589099999999998
 21
25.9848
 31
0.0
  0
ENDBLK
  5
16A
  8
_________1
  0
BLOCK
  8
_________1
  2
AIGNBL02010023
 70
     0
 10
0.0
 20
0.0
 30
0.0
  3
AIGNBL02010023
  1

  0
INSERT
  5
16D
  8
_________1
 62
     7
  2
AIGNBL02020024
 10
0.0
 20
0.0
 30
0.0
  0
ENDBLK
  5
16E
  8
_________1
  0
BLOCK
  8
_________1
  2
AIGNBL02010027
 70
     0
 10
0.0
 20
0.0
 30
0.0
  3
AIGNBL02010027
  1

  0
INSERT
  5
171
  8
_________1
 62
     7
  2
AIGNBL02020028
 10
0.0
 20
0.0
 30
0.0
  0
ENDBLK
  5
172
  8
_________1
  0
BLOCK
  8
_________1
  2
AIGNBL0201002B
 70
     0
 10
0.0
 20
0.0
 30
0.0
  3
AIGNBL0201002B
  1

  0
INSERT
  5
175
  8
_________1
 62
     7
  2
AIGNBL0202002C
 10
0.0
 20
0.0
 30
0.0
  0
ENDBLK
  5
176
  8
_________1
  0
BLOCK
  8
_________1
  2
AIGNBL0201002F
 70
     0
 10
0.0
 20
0.0
 30
0.0
  3
AIGNBL0201002F
  1

  0
LINE
  5
179
  8
_________1
 62
     7
 10
35.333500000000001
 20
175.43299999999999
 30
0.0
 11
33.2164
 21
174.56
 31
0.0
  0
LINE
  5
17A
  8
_________1
 62
     7
 10
33.2164
 20
174.56
 30
0.0
 11
35.4861
 21
174.25800000000001
 31
0.0
  0
LINE
  5
17B
  8
_________1
 62
     7
 10
35.4861
 20
174.25800000000001
 30
0.0
 11
35.333500000000001
 21
175.43299999999999
 31
0.0
  0
ARC
  5
17C
  8
_________1
 62
     7
 10
33.252808000000002
 20
182.50615199999999
 30
0.0
 40
7.940682999999999
 50
270.01851199999999
 51
301.33783
  0
ARC
  5
17D
  8
_________1
 62
     7
 10
33.251691000000001
 20
182.547391
 30
0.0
 40
7.9819219999999991
 50
263.075378
 51
270.02643499999999
  0
ENDBLK
  5
17E
  8
_________1
  0
BLOCK
  8
_________1
  2
AIGNBL02010030
 70
     0
 10
0.0
 20
0.0
 30
0.0
  3
AIGNBL02010030
  1

  0
LINE
  5
181
  8
_________1
 62
     7
 10
29.959800000000001
 20
174.636
 30
0.0
 11
32.249400000000001
 21
174.63499999999999
 31
0.0
  0
LINE
  5
182
  8
_________1
 62
     7
 10
32.249400000000001
 20
174.63499999999999
 30
0.0
 11
30.267099999999999
 21
175.78
 31
0.0
  0
LINE
  5
183
  8
_________1
 62
     7
 10
30.267099999999999
 20
175.78
 30
0.0
 11
29.959800000000001
 21
174.636
 31
0.0
  0
ARC
  5
184
  8
_________1
 62
     7
 10
33.265796000000002
 20
182.511942
 30
0.0
 40
7.9484529999999989
 50
228.82243600000001
 51
262.94363700000002
  0
ENDBLK
  5
185
  8
_________1
  0
BLOCK
  8
_________1
  2
AIGNBL02010031
 70
     0
 10
0.0
 20
0.0
 30
0.0
  3
AIGNBL02010031
  1

  0
INSERT
  5
188
  8
_________1
 62
     7
  2
AIGNBL02020032
 10
0.0
 20
0.0
 30
0.0
  0
INSERT
  5
189
  8
_________1
 62
     7
  2
AIGNBL02020033
 10
0.0
 20
0.0
 30
0.0
  0
ENDBLK
  5
18A
  8
_________1
  0
BLOCK
  8
_________1
  2
AIGNBL02010034
 70
     0
 10
0.0
 20
0.0
 30
0.0
  3
AIGNBL02010034
  1

  0
INSERT
  5
18D
  8
_________1
 62
     7
  2
AIGNBL02020035
 10
0.0
 20
0.0
 30
0.0
  0
INSERT
  5
18E
  8
_________1
 62
     7
  2
AIGNBL02020036
 10
0.0
 20
0.0
 30
0.0
  0
ENDBLK
  5
18F
  8
_________1
  0
BLOCK
  8
_________1
  2
AIGNBL02010037
 70
     0
 10
0.0
 20
0.0
 30
0.0
  3
AIGNBL02010037
  1

  0
ARC
  5
192
  8
_________1
 62
     7
 10
-31.504429999999999
 20
216.907827
 30
0.0
 40
2.3136079999999999
 50
354.23205899999999
 51
0.022041
  0
ARC
  5
193
  8
_________1
 62
     7
 10
-31.465052
 20
216.89401000000001
 30
0.0
 40
2.2730610000000002
 50
348.58066500000001
 51
354.47882299999998
  0
ARC
  5
194
  8
_________1
 62
     7
 10
-31.474191000000001
 20
216.88781299999999
 30
0.0
 40
2.2808060000000001
 50
342.90309000000002
 51
348.77869800000002
  0
ARC
  5
195
  8
_________1
 62
     7
 10
-31.563379000000001
 20
216.90972099999999
 30
0.0
 40
2.3724979999999989
 50
337.37798100000009
 51
343.030621
  0
ARC
  5
196
  8
_________1
 62
     7
 10
-31.787275999999999
 20
217.01741999999999
 30
0.0
 40
2.6206299999999989
 50
331.97139800000002
 51
337.08740599999999
  0
ARC
  5
197
  8
_________1
 62
     7
 10
-31.571020999999998
 20
216.91732300000001
 30
0.0
 40
2.3827389999999991
 50
326.01553799999999
 51
331.65244899999999
  0
ARC
  5
198
  8
_________1
 62
     7
 10
-31.550125999999999
 20
216.89906999999999
 30
0.0
 40
2.355213
 50
320.39646900000002
 51
326.09959800000001
  0
ARC
  5
199
  8
_________1
 62
     7
 10
-31.552202000000001
 20
216.89668399999999
 30
0.0
 40
2.3552930000000001
 50
314.76417700000002
 51
320.47337599999997
  0
ARC
  5
19A
  8
_________1
 62
     7
 10
-31.627813
 20
216.97898599999999
 30
0.0
 40
2.4669769999999991
 50
309.209496
 51
314.664964
  0
ARC
  5
19B
  8
_________1
 62
     7
 10
-31.507282
 20
216.82482899999999
 30
0.0
 40
2.2713389999999989
 50
303.38557700000001
 51
309.31190600000008
  0
ARC
  5
19C
  8
_________1
 62
     7
 10
-31.654986000000001
 20
217.04529500000001
 30
0.0
 40
2.5367029999999988
 50
298.12186500000001
 51
303.43108599999999
  0
ARC
  5
19D
  8
_________1
 62
     7
 10
-31.588097000000001
 20
216.93671699999999
 30
0.0
 40
2.4094279999999988
 50
292.341159
 51
297.93602199999998
  0
ARC
  5
19E
  8
_________1
 62
     7
 10
-31.694998999999999
 20
217.238708
 30
0.0
 40
2.7294330000000002
 50
287.06370199999998
 51
292.00707399999999
  0
ARC
  5
19F
  8
_________1
 62
     7
 10
-31.541350999999999
 20
216.74292399999999
 30
0.0
 40
2.210388
 50
280.9231529999999
 51
287.02731499999999
  0
ARC
  5
1A0
  8
_________1
 62
     7
 10
-31.637678999999999
 20
217.26442599999999
 30
0.0
 40
2.7406980000000001
 50
275.91188499999998
 51
280.83454499999999
  0
ARC
  5
1A1
  8
_________1
 62
     7
 10
-31.601469000000002
 20
217.15092799999999
 30
0.0
 40
2.624187
 50
270.23531400000002
 51
275.38072799999998
  0
ENDBLK
  5
1A2
  8
_________1
  0
BLOCK
  8
_________1
  2
AIGNBL02010038
 70
     0
 10
0.0
 20
0.0
 30
0.0
  3
AIGNBL02010038
  1

  0
ARC
  5
1A5
  8
_________1
 62
     7
 10
-12.808833
 20
260.02028799999999
 30
0.0
 40
0.036754
 50
332.54757699999999
 51
359.09629799999999
  0
ARC
  5
1A6
  8
_________1
 62
     7
 10
-12.823278999999999
 20
260.02551699999998
 30
0.0
 40
0.052023
 50
313.32172100000003
 51
334.77343100000007
  0
ARC
  5
1A7
  8
_________1
 62
     7
 10
-12.86261
 20
260.06358699999998
 30
0.0
 40
0.106733
 50
302.129569
 51
314.66077200000001
  0
ARC
  5
1A8
  8
_________1
 62
     7
 10
-12.899535999999999
 20
260.12726199999997
 30
0.0
 40
0.180314
 50
292.45969100000002
 51
301.30527499999999
  0
ARC
  5
1A9
  8
_________1
 62
     7
 10
-12.930878999999999
 20
260.20082000000002
 30
0.0
 40
0.260268
 50
285.58185400000008
 51
292.64986400000009
  0
ARC
  5
1AA
  8
_________1
 62
     7
 10
-12.973288999999999
 20
260.372345
 30
0.0
 40
0.436912
 50
280.220752
 51
284.89693899999997
  0
ARC
  5
1AB
  8
_________1
 62
     7
 10
-12.971978999999999
 20
260.40382
 30
0.0
 40
0.4677060000000001
 50
274.74199499999997
 51
279.378647
  0
ARC
  5
1AC
  8
_________1
 62
     7
 10
-12.966557
 20
260.28290600000003
 30
0.0
 40
0.346788
 50
269.06028900000001
 51
275.50070099999999
  0
ENDBLK
  5
1AD
  8
_________1
  0
BLOCK
  8
_________1
  2
AIGNBL02010039
 70
     0
 10
0.0
 20
0.0
 30
0.0
  3
AIGNBL02010039
  1

  0
ARC
  5
1B0
  8
_________1
 62
     7
 10
-31.591588999999999
 20
217.47909999999999
 30
0.0
 40
2.4221330000000001
 50
264.446459
 51
270.02122900000001
  0
ARC
  5
1B1
  8
_________1
 62
     7
 10
-31.619199999999999
 20
217.28154499999999
 30
0.0
 40
2.2228500000000002
 50
258.59158200000002
 51
264.66202700000002
  0
ARC
  5
1B2
  8
_________1
 62
     7
 10
-31.527342000000001
 20
217.72576599999999
 30
0.0
 40
2.6764649999999999
 50
253.50457
 51
258.54500200000001
  0
ARC
  5
1B3
  8
_________1
 62
     7
 10
-31.514671
 20
217.68901700000001
 30
0.0
 40
2.6449220000000002
 50
247.91391899999999
 51
253.015344
  0
ARC
  5
1B4
  8
_________1
 62
     7
 10
-31.677233999999999
 20
217.28785400000001
 30
0.0
 40
2.212072
 50
241.81419199999999
 51
247.90866600000001
  0
ARC
  5
1B5
  8
_________1
 62
     7
 10
-31.559788999999999
 20
217.51925900000001
 30
0.0
 40
2.4715180000000001
 50
236.49886799999999
 51
241.94822099999999
  0
ARC
  5
1B6
  8
_________1
 62
     7
 10
-31.628961
 20
217.416201
 30
0.0
 40
2.347399999999999
 50
230.784209
 51
236.518348
  0
ARC
  5
1B7
  8
_________1
 62
     7
 10
-31.534590000000001
 20
217.52819700000001
 30
0.0
 40
2.4938380000000002
 50
225.33188200000001
 51
230.73119500000001
  0
ARC
  5
1B8
  8
_________1
 62
     7
 10
-31.512591
 20
217.53102999999999
 30
0.0
 40
2.511355
 50
219.67442700000001
 51
225.020366
  0
ARC
  5
1B9
  8
_________1
 62
     7
 10
-31.561444999999999
 20
217.48469399999999
 30
0.0
 40
2.4441749999999991
 50
214.06930299999999
 51
219.56953200000001
  0
ARC
  5
1BA
  8
_________1
 62
     7
 10
-31.412424000000001
 20
217.56312700000001
 30
0.0
 40
2.6116220000000001
 50
208.524575
 51
213.663208
  0
ARC
  5
1BB
  8
_________1
 62
     7
 10
-31.588636000000001
 20
217.453868
 30
0.0
 40
2.4046549999999991
 50
202.66270399999999
 51
208.242267
  0
ARC
  5
1BC
  8
_________1
 62
     7
 10
-31.801977999999998
 20
217.376845
 30
0.0
 40
2.1781349999999988
 50
196.79476299999999
 51
202.95535699999999
  0
ARC
  5
1BD
  8
_________1
 62
     7
 10
-31.641722999999999
 20
217.43453400000001
 30
0.0
 40
2.3482400000000001
 50
191.305757
 51
197.012495
  0
ARC
  5
1BE
  8
_________1
 62
     7
 10
-31.588356000000001
 20
217.44344899999999
 30
0.0
 40
2.4023209999999988
 50
185.68825799999999
 51
191.26473300000001
  0
ARC
  5
1BF
  8
_________1
 62
     7
 10
-31.561449
 20
217.44365500000001
 30
0.0
 40
2.4291169999999989
 50
180.11574999999999
 51
185.630189
  0
ENDBLK
  5
1C0
  8
_________1
  0
BLOCK
  8
_________1
  2
AIGNBL0201003A
 70
     0
 10
0.0
 20
0.0
 30
0.0
  3
AIGNBL0201003A
  1

  0
ARC
  5
1C3
  8
_________1
 62
     7
 10
-31.591588000000002
 20
216.91292999999999
 30
0.0
 40
2.386166999999999
 50
264.36246599999998
 51
270.02153199999998
  0
ARC
  5
1C4
  8
_________1
 62
     7
 10
-31.619199999999999
 20
216.75151399999999
 30
0.0
 40
2.2228500000000002
 50
258.59158200000002
 51
264.66202700000002
  0
ARC
  5
1C5
  8
_________1
 62
     7
 10
-31.527342000000001
 20
217.19573500000001
 30
0.0
 40
2.6764649999999999
 50
253.50457
 51
258.54500200000001
  0
ARC
  5
1C6
  8
_________1
 62
     7
 10
-31.514671
 20
217.158986
 30
0.0
 40
2.6449220000000002
 50
247.91391899999999
 51
253.015344
  0
ARC
  5
1C7
  8
_________1
 62
     7
 10
-31.677233999999999
 20
216.757822
 30
0.0
 40
2.212072
 50
241.81419199999999
 51
247.90866600000001
  0
ARC
  5
1C8
  8
_________1
 62
     7
 10
-31.559788999999999
 20
216.989228
 30
0.0
 40
2.4715180000000001
 50
236.49886799999999
 51
241.94822099999999
  0
ARC
  5
1C9
  8
_________1
 62
     7
 10
-31.628961
 20
216.88616999999999
 30
0.0
 40
2.347399999999999
 50
230.784209
 51
236.518348
  0
ARC
  5
1CA
  8
_________1
 62
     7
 10
-31.516760999999999
 20
217.01995700000001
 30
0.0
 40
2.521993999999999
 50
225.39460399999999
 51
230.730976
  0
ARC
  5
1CB
  8
_________1
 62
     7
 10
-31.530397000000001
 20
216.98301900000001
 30
0.0
 40
2.4861729999999991
 50
219.61749599999999
 51
225.02056099999999
  0
ARC
  5
1CC
  8
_________1
 62
     7
 10
-31.561444999999999
 20
216.95466200000001
 30
0.0
 40
2.4441749999999991
 50
214.06930299999999
 51
219.56953200000001
  0
ARC
  5
1CD
  8
_________1
 62
     7
 10
-31.412424000000001
 20
217.033095
 30
0.0
 40
2.6116220000000001
 50
208.524575
 51
213.663208
  0
ARC
  5
1CE
  8
_________1
 62
     7
 10
-31.576111999999998
 20
216.93055899999999
 30
0.0
 40
2.4188679999999998
 50
202.69908599999999
 51
208.24214900000001
  0
ARC
  5
1CF
  8
_________1
 62
     7
 10
-31.801977999999998
 20
216.84664100000001
 30
0.0
 40
2.1781349999999988
 50
196.79476299999999
 51
202.95535699999999
  0
ARC
  5
1D0
  8
_________1
 62
     7
 10
-31.641722999999999
 20
216.90432999999999
 30
0.0
 40
2.3482400000000001
 50
191.305757
 51
197.012495
  0
ARC
  5
1D1
  8
_________1
 62
     7
 10
-31.591906999999999
 20
216.91253900000001
 30
0.0
 40
2.3986999999999989
 50
185.67578900000001
 51
191.26476199999999
  0
ARC
  5
1D2
  8
_________1
 62
     7
 10
-31.561449
 20
216.913624
 30
0.0
 40
2.4291169999999989
 50
180.11574999999999
 51
185.630189
  0
ENDBLK
  5
1D3
  8
_________1
  0
BLOCK
  8
_________1
  2
AIGNBL0201003B
 70
     0
 10
0.0
 20
0.0
 30
0.0
  3
AIGNBL0201003B
  1

  0
ARC
  5
1D6
  8
_________1
 62
     7
 10
-31.504429999999999
 20
217.43785800000001
 30
0.0
 40
2.3136079999999999
 50
354.23205899999999
 51
0.022041
  0
ARC
  5
1D7
  8
_________1
 62
     7
 10
-31.510088
 20
217.43108799999999
 30
0.0
 40
2.3185679999999991
 50
348.63448399999999
 51
354.41256399999997
  0
ARC
  5
1D8
  8
_________1
 62
     7
 10
-31.474191000000001
 20
217.41801699999999
 30
0.0
 40
2.2808060000000001
 50
342.90309000000002
 51
348.77869800000002
  0
ARC
  5
1D9
  8
_________1
 62
     7
 10
-31.563379000000001
 20
217.43992399999999
 30
0.0
 40
2.3724979999999989
 50
337.37798100000009
 51
343.030621
  0
ARC
  5
1DA
  8
_________1
 62
     7
 10
-31.806251
 20
217.55565100000001
 30
0.0
 40
2.6412330000000002
 50
332.00780900000001
 51
337.08725900000002
  0
ARC
  5
1DB
  8
_________1
 62
     7
 10
-31.571020999999998
 20
217.44735399999999
 30
0.0
 40
2.3827389999999991
 50
326.01553799999999
 51
331.65244899999999
  0
ARC
  5
1DC
  8
_________1
 62
     7
 10
-31.840634999999999
 20
217.64605
 30
0.0
 40
2.7174009999999988
 50
320.776793
 51
325.7192740000001
  0
ARC
  5
1DD
  8
_________1
 62
     7
 10
-31.533231000000001
 20
217.41104999999999
 30
0.0
 40
2.330690999999999
 50
314.70721099999997
 51
320.47359499999999
  0
ARC
  5
1DE
  8
_________1
 62
     7
 10
-31.648904999999999
 20
217.53054499999999
 30
0.0
 40
2.4969929999999998
 50
309.27223800000002
 51
314.66472499999998
  0
ARC
  5
1DF
  8
_________1
 62
     7
 10
-31.507282
 20
217.35486
 30
0.0
 40
2.2713389999999989
 50
303.38557700000001
 51
309.31190600000008
  0
ARC
  5
1E0
  8
_________1
 62
     7
 10
-31.654986000000001
 20
217.57532599999999
 30
0.0
 40
2.5367029999999988
 50
298.12186500000001
 51
303.43108599999999
  0
ARC
  5
1E1
  8
_________1
 62
     7
 10
-31.588097000000001
 20
217.466748
 30
0.0
 40
2.4094279999999988
 50
292.341159
 51
297.93602199999998
  0
ARC
  5
1E2
  8
_________1
 62
     7
 10
-31.694998999999999
 20
217.76874000000001
 30
0.0
 40
2.7294330000000002
 50
287.06370199999998
 51
292.00707399999999
  0
ARC
  5
1E3
  8
_________1
 62
     7
 10
-31.541350999999999
 20
217.272955
 30
0.0
 40
2.210388
 50
280.9231529999999
 51
287.02731499999999
  0
ARC
  5
1E4
  8
_________1
 62
     7
 10
-31.637678999999999
 20
217.79445699999999
 30
0.0
 40
2.7406980000000001
 50
275.91188499999998
 51
280.83454499999999
  0
ARC
  5
1E5
  8
_________1
 62
     7
 10
-31.59751
 20
217.638777
 30
0.0
 40
2.581818999999999
 50
270.15131500000001
 51
275.38103599999999
  0
ENDBLK
  5
1E6
  8
_________1
  0
BLOCK
  8
_________1
  2
AIGNBL0201003C
 70
     0
 10
0.0
 20
0.0
 30
0.0
  3
AIGNBL0201003C
  1

  0
ARC
  5
1E9
  8
_________1
 62
     7
 10
-12.808218999999999
 20
263.77739000000003
 30
0.0
 40
0.036138
 50
0.673199
 51
27.68292700000001
  0
ARC
  5
1EA
  8
_________1
 62
     7
 10
-12.820682
 20
263.77389099999999
 30
0.0
 40
0.048875
 50
24.526619
 51
47.378228999999997
  0
ARC
  5
1EB
  8
_________1
 62
     7
 10
-12.854191999999999
 20
263.74455999999998
 30
0.0
 40
0.093272
 50
44.430535999999989
 51
58.779123999999989
  0
ARC
  5
1EC
  8
_________1
 62
     7
 10
-12.894901000000001
 20
263.681534
 30
0.0
 40
0.168285
 50
58.048852000000011
 51
67.554878000000002
  0
ARC
  5
1ED
  8
_________1
 62
     7
 10
-12.922423
 20
263.617504
 30
0.0
 40
0.237974
 50
67.316485
 51
75.034079000000006
  0
ARC
  5
1EE
  8
_________1
 62
     7
 10
-12.949648
 20
263.53129999999999
 30
0.0
 40
0.32831
 50
74.328975
 51
80.553335000000004
  0
ARC
  5
1EF
  8
_________1
 62
     7
 10
-12.962876
 20
263.48122699999999
 30
0.0
 40
0.379906
 50
79.824831000000003
 51
85.537111999999993
  0
ARC
  5
1F0
  8
_________1
 62
     7
 10
-12.971213000000001
 20
263.397875
 30
0.0
 40
0.4636580000000001
 50
85.311543
 51
90.127467000000024
  0
ENDBLK
  5
1F1
  8
_________1
  0
BLOCK
  8
_________1
  2
AIGNBL0201003D
 70
     0
 10
0.0
 20
0.0
 30
0.0
  3
AIGNBL0201003D
  1

  0
ARC
  5
1F4
  8
_________1
 62
     7
 10
-31.591588000000002
 20
216.912586
 30
0.0
 40
2.386166999999999
 50
264.36246599999998
 51
270.02153199999998
  0
ARC
  5
1F5
  8
_________1
 62
     7
 10
-31.619199999999999
 20
216.751169
 30
0.0
 40
2.2228500000000002
 50
258.59158200000002
 51
264.66202700000002
  0
ARC
  5
1F6
  8
_________1
 62
     7
 10
-31.527342000000001
 20
217.195391
 30
0.0
 40
2.6764649999999999
 50
253.50457
 51
258.54500200000001
  0
ARC
  5
1F7
  8
_________1
 62
     7
 10
-31.514671
 20
217.15864199999999
 30
0.0
 40
2.6449220000000002
 50
247.91391899999999
 51
253.015344
  0
ARC
  5
1F8
  8
_________1
 62
     7
 10
-31.687289
 20
216.732733
 30
0.0
 40
2.185362
 50
241.73797300000001
 51
247.908929
  0
ARC
  5
1F9
  8
_________1
 62
     7
 10
-31.616035
 20
216.897434
 30
0.0
 40
2.3642180000000002
 50
236.41227799999999
 51
242.107012
  0
ARC
  5
1FA
  8
_________1
 62
     7
 10
-31.686546
 20
216.805421
 30
0.0
 40
2.2485740000000001
 50
230.62294700000001
 51
236.61193700000001
  0
ARC
  5
1FB
  8
_________1
 62
     7
 10
-31.516760999999999
 20
217.01978500000001
 30
0.0
 40
2.521993999999999
 50
225.39460399999999
 51
230.730976
  0
ARC
  5
1FC
  8
_________1
 62
     7
 10
-31.643574999999998
 20
216.883377
 30
0.0
 40
2.335831999999999
 50
219.50283999999999
 51
225.259646
  0
ARC
  5
1FD
  8
_________1
 62
     7
 10
-31.413824000000002
 20
217.061274
 30
0.0
 40
2.6262849999999989
 50
214.194952
 51
219.30902
  0
ARC
  5
1FE
  8
_________1
 62
     7
 10
-31.412424000000001
 20
217.03292300000001
 30
0.0
 40
2.6116220000000001
 50
208.524575
 51
213.663208
  0
ARC
  5
1FF
  8
_________1
 62
     7
 10
-31.643841999999999
 20
216.900916
 30
0.0
 40
2.3452630000000001
 50
202.666279
 51
208.39088100000001
  0
ARC
  5
200
  8
_________1
 62
     7
 10
-31.749497000000002
 20
216.862392
 30
0.0
 40
2.2329289999999991
 50
196.79258200000001
 51
202.798856
  0
ARC
  5
201
  8
_________1
 62
     7
 10
-31.641722999999999
 20
216.90432999999999
 30
0.0
 40
2.3482400000000001
 50
191.305757
 51
197.012495
  0
ARC
  5
202
  8
_________1
 62
     7
 10
-31.588356000000001
 20
216.91324499999999
 30
0.0
 40
2.4023209999999988
 50
185.68825799999999
 51
191.26473300000001
  0
ARC
  5
203
  8
_________1
 62
     7
 10
-31.502230999999998
 20
216.916417
 30
0.0
 40
2.4883410000000001
 50
180.177325
 51
185.56438399999999
  0
ENDBLK
  5
204
  8
_________1
  0
BLOCK
  8
_________1
  2
AIGNBL0201003E
 70
     0
 10
0.0
 20
0.0
 30
0.0
  3
AIGNBL0201003E
  1

  0
ARC
  5
207
  8
_________1
 62
     7
 10
-31.504429999999999
 20
216.907827
 30
0.0
 40
2.3136079999999999
 50
354.23205899999999
 51
0.022041
  0
ARC
  5
208
  8
_________1
 62
     7
 10
-31.465052
 20
216.89401000000001
 30
0.0
 40
2.2730610000000002
 50
348.58066500000001
 51
354.47882299999998
  0
ARC
  5
209
  8
_________1
 62
     7
 10
-31.474191000000001
 20
216.88781299999999
 30
0.0
 40
2.2808060000000001
 50
342.90309000000002
 51
348.77869800000002
  0
ARC
  5
20A
  8
_________1
 62
     7
 10
-31.563379000000001
 20
216.90972099999999
 30
0.0
 40
2.3724979999999989
 50
337.37798100000009
 51
343.030621
  0
ARC
  5
20B
  8
_________1
 62
     7
 10
-31.806251
 20
217.02544700000001
 30
0.0
 40
2.6412330000000002
 50
332.00780900000001
 51
337.08725900000002
  0
ARC
  5
20C
  8
_________1
 62
     7
 10
-31.571020999999998
 20
216.91715099999999
 30
0.0
 40
2.3827389999999991
 50
326.01553799999999
 51
331.65244899999999
  0
ARC
  5
20D
  8
_________1
 62
     7
 10
-31.6174
 20
216.94913700000001
 30
0.0
 40
2.439074999999999
 50
320.49459000000007
 51
326.00147700000002
  0
ARC
  5
20E
  8
_________1
 62
     7
 10
-31.552202000000001
 20
216.896511
 30
0.0
 40
2.3552930000000001
 50
314.76417700000002
 51
320.47337599999997
  0
ARC
  5
20F
  8
_________1
 62
     7
 10
-31.590802
 20
216.93427600000001
 30
0.0
 40
2.4092880000000001
 50
309.20342299999999
 51
314.783523
  0
ARC
  5
210
  8
_________1
 62
     7
 10
-31.604897999999999
 20
216.95859899999999
 30
0.0
 40
2.437050999999999
 50
303.56681300000002
 51
309.09878200000003
  0
ARC
  5
211
  8
_________1
 62
     7
 10
-31.592759000000001
 20
216.94352599999999
 30
0.0
 40
2.41778
 50
297.95613700000001
 51
303.52461299999999
  0
ARC
  5
212
  8
_________1
 62
     7
 10
-31.604082999999999
 20
216.96671799999999
 30
0.0
 40
2.4435739999999999
 50
292.41739999999999
 51
297.93573800000001
  0
ARC
  5
213
  8
_________1
 62
     7
 10
-31.694998999999999
 20
217.23836399999999
 30
0.0
 40
2.7294330000000002
 50
287.06370199999998
 51
292.00707399999999
  0
ARC
  5
214
  8
_________1
 62
     7
 10
-31.541350999999999
 20
216.74257900000001
 30
0.0
 40
2.210388
 50
280.9231529999999
 51
287.02731499999999
  0
ARC
  5
215
  8
_________1
 62
     7
 10
-31.637678999999999
 20
217.264082
 30
0.0
 40
2.7406980000000001
 50
275.91188499999998
 51
280.83454499999999
  0
ARC
  5
216
  8
_________1
 62
     7
 10
-31.601469000000002
 20
217.15058300000001
 30
0.0
 40
2.624187
 50
270.23531400000002
 51
275.38072799999998
  0
ENDBLK
  5
217
  8
_________1
  0
BLOCK
  8
_________1
  2
AIGNBL0201003F
 70
     0
 10
0.0
 20
0.0
 30
0.0
  3
AIGNBL0201003F
  1

  0
LINE
  5
21A
  8
_________1
 62
     7
 10
80.651600000000002
 20
162.678
 30
0.0
 11
80.649899999999988
 21
162.672
 31
0.0
  0
ARC
  5
21B
  8
_________1
 62
     7
 10
81.718459999999993
 20
162.40614400000001
 30
0.0
 40
1.1011159999999991
 50
166.04335699999999
 51
166.96513999999999
  0
LINE
  5
21C
  8
_________1
 62
     7
 10
80.645700000000005
 20
162.654
 30
0.0
 11
80.638499999999993
 21
162.626
 31
0.0
  0
ARC
  5
21D
  8
_________1
 62
     7
 10
75.319170999999997
 20
163.85422399999999
 30
0.0
 40
5.4592130000000001
 50
346.57369599999998
 51
347.00081299999999
  0
ARC
  5
21E
  8
_________1
 62
     7
 10
83.347965000000016
 20
161.97924900000001
 30
0.0
 40
2.785803
 50
167.406891
 51
168.45753400000001
  0
ARC
  5
21F
  8
_________1
 62
     7
 10
83.846473000000003
 20
161.87132
 30
0.0
 40
3.2958309999999988
 50
168.353272
 51
169.409221
  0
ARC
  5
220
  8
_________1
 62
     7
 10
82.703970999999996
 20
162.08761000000001
 30
0.0
 40
2.1330409999999991
 50
169.47964899999999
 51
171.30990499999999
  0
ARC
  5
221
  8
_________1
 62
     7
 10
83.406432999999993
 20
161.98154700000001
 30
0.0
 40
2.8434639999999991
 50
171.33587299999999
 51
172.849763
  0
ARC
  5
222
  8
_________1
 62
     7
 10
83.593282999999985
 20
161.98032599999999
 30
0.0
 40
3.029091999999999
 50
173.26677799999999
 51
174.76727099999999
  0
ARC
  5
223
  8
_________1
 62
     7
 10
84.080484999999996
 20
161.95130499999999
 30
0.0
 40
3.516945999999999
 50
175.02033299999999
 51
176.36556400000001
  0
ARC
  5
224
  8
_________1
 62
     7
 10
83.075261999999995
 20
162.05021199999999
 30
0.0
 40
2.5077189999999989
 50
177.16496599999999
 51
179.094559
  0
ARC
  5
225
  8
_________1
 62
     7
 10
82.359436999999986
 20
162.04746399999999
 30
0.0
 40
1.792081
 50
178.64505700000001
 51
181.35494299999999
  0
ARC
  5
226
  8
_________1
 62
     7
 10
82.613883999999985
 20
162.0300959999999
 30
0.0
 40
2.0461800000000001
 50
180.70027300000001
 51
183.055521
  0
ARC
  5
227
  8
_________1
 62
     7
 10
83.99521
 20
162.13629900000001
 30
0.0
 40
3.4313569999999989
 50
183.59691100000001
 51
184.981435
  0
ARC
  5
228
  8
_________1
 62
     7
 10
83.819631999999984
 20
162.13832400000001
 30
0.0
 40
3.2566630000000001
 50
185.28515799999991
 51
186.68079399999991
  0
ARC
  5
229
  8
_________1
 62
     7
 10
83.060907
 20
162.06716
 30
0.0
 40
2.4948730000000001
 50
187.08469500000001
 51
188.80228700000001
  0
ARC
  5
22A
  8
_________1
 62
     7
 10
82.776487999999986
 20
162.01788400000001
 30
0.0
 40
2.2062689999999989
 50
188.66795999999999
 51
190.44628599999999
  0
ARC
  5
22B
  8
_________1
 62
     7
 10
85.701634999999996
 20
162.58820600000001
 30
0.0
 40
5.1864299999999997
 50
190.783243
 51
191.45426399999999
  0
ARC
  5
22C
  8
_________1
 62
     7
 10
84.123102999999986
 20
162.286766
 30
0.0
 40
3.5795199999999991
 50
191.74297100000001
 51
192.55525
  0
ARC
  5
22D
  8
_________1
 62
     7
 10
85.948491000000004
 20
162.736628
 30
0.0
 40
5.4592130000000001
 50
192.99920700000001
 51
193.42632399999999
  0
LINE
  5
22E
  8
_________1
 62
     7
 10
80.638499999999993
 20
161.46899999999999
 30
0.0
 11
80.645700000000005
 21
161.44
 31
0.0
  0
ARC
  5
22F
  8
_________1
 62
     7
 10
79.577106999999984
 20
161.174859
 30
0.0
 40
1.1011159999999991
 50
13.034840000000001
 51
13.956623
  0
LINE
  5
230
  8
_________1
 62
     7
 10
80.649899999999988
 20
161.423
 30
0.0
 11
80.651600000000002
 21
161.41800000000001
 31
0.0
  0
ENDBLK
  5
231
  8
_________1
  0
BLOCK
  8
_________1
  2
AIGNBL02010040
 70
     0
 10
0.0
 20
0.0
 30
0.0
  3
AIGNBL02010040
  1

  0
LINE
  5
234
  8
_________1
 62
     7
 10
-33.985700000000001
 20
157.93600000000001
 30
0.0
 11
-33.954700000000003
 21
157.91999999999999
 31
0.0
  0
ARC
  5
235
  8
_________1
 62
     7
 10
-37.269601999999999
 20
151.25511700000001
 30
0.0
 40
7.443452999999999
 50
63.047278000000013
 51
63.554868999999989
  0
ARC
  5
236
  8
_________1
 62
     7
 10
-31.346805
 20
163.04015200000001
 30
0.0
 40
5.7463759999999997
 50
243.667069
 51
244.644181
  0
ARC
  5
237
  8
_________1
 62
     7
 10
-32.120992999999999
 20
161.255743
 30
0.0
 40
3.8028769999999992
 50
243.671661
 51
245.63601299999999
  0
ARC
  5
238
  8
_________1
 62
     7
 10
-31.249701000000002
 20
163.06932499999999
 30
0.0
 40
5.8145610000000003
 50
245.18730099999999
 51
246.78910999999999
  0
ARC
  5
239
  8
_________1
 62
     7
 10
-30.490680000000001
 20
164.73688100000001
 30
0.0
 40
7.6463960000000011
 50
246.48657600000001
 51
247.92589799999999
  0
ARC
  5
23A
  8
_________1
 62
     7
 10
-31.100518999999998
 20
163.27957599999999
 30
0.0
 40
6.0667569999999991
 50
248.090924
 51
250.135256
  0
ARC
  5
23B
  8
_________1
 62
     7
 10
-30.834790000000002
 20
164.03114299999999
 30
0.0
 40
6.8639020000000004
 50
250.18088
 51
252.158973
  0
ARC
  5
23C
  8
_________1
 62
     7
 10
-30.853578000000009
 20
164.21843200000001
 30
0.0
 40
7.0368300000000001
 50
252.7718220000001
 51
254.790594
  0
ARC
  5
23D
  8
_________1
 62
     7
 10
-31.103342000000001
 20
163.61858899999999
 30
0.0
 40
6.393019999999999
 50
255.540289
 51
257.81862500000011
  0
ARC
  5
23E
  8
_________1
 62
     7
 10
-31.433192999999999
 20
162.363765
 30
0.0
 40
5.0971729999999997
 50
258.46663699999999
 51
261.33837599999998
  0
ARC
  5
23F
  8
_________1
 62
     7
 10
-31.520786000000001
 20
161.92709500000001
 30
0.0
 40
4.6523389999999987
 50
261.59492999999998
 51
264.73185699999999
  0
ARC
  5
240
  8
_________1
 62
     7
 10
-31.529667
 20
162.39932999999999
 30
0.0
 40
5.1220299999999996
 50
265.31581800000009
 51
268.16093799999999
  0
ARC
  5
241
  8
_________1
 62
     7
 10
-31.601752000000001
 20
161.457739
 30
0.0
 40
4.178818999999999
 50
268.73447399999998
 51
272.20224100000001
  0
ARC
  5
242
  8
_________1
 62
     7
 10
-31.556249999999999
 20
160.85075000000001
 30
0.0
 40
3.5705989999999992
 50
271.84690899999998
 51
275.92592000000002
  0
ARC
  5
243
  8
_________1
 62
     7
 10
-31.594453999999999
 20
161.47952100000001
 30
0.0
 40
4.2000409999999997
 50
275.55873700000001
 51
279.03704699999997
  0
ARC
  5
244
  8
_________1
 62
     7
 10
-31.758362999999999
 20
162.36183199999999
 30
0.0
 40
5.0971989999999989
 50
279.298813
 51
282.16852
  0
ARC
  5
245
  8
_________1
 62
     7
 10
-32.054769
 20
163.401895
 30
0.0
 40
6.1767750000000001
 50
282.82262000000009
 51
285.17434500000002
  0
ARC
  5
246
  8
_________1
 62
     7
 10
-31.714715999999999
 20
162.143699
 30
0.0
 40
4.873435999999999
 50
285.18780600000002
 51
288.08805899999999
  0
ARC
  5
247
  8
_________1
 62
     7
 10
-32.294307000000003
 20
163.91055800000001
 30
0.0
 40
6.7329280000000002
 50
288.10828600000002
 51
290.09713299999999
  0
ARC
  5
248
  8
_________1
 62
     7
 10
-32.371915000000001
 20
164.006801
 30
0.0
 40
6.8500940000000003
 50
290.43013000000002
 51
292.20571000000001
  0
ARC
  5
249
  8
_________1
 62
     7
 10
-32.198217
 20
163.588379
 30
0.0
 40
6.3970599999999989
 50
292.1817069999999
 51
293.85470199999997
  0
ARC
  5
24A
  8
_________1
 62
     7
 10
-34.863321999999997
 20
169.52192199999999
 30
0.0
 40
12.901597000000001
 50
294.02257900000001
 51
294.71963399999999
  0
ARC
  5
24B
  8
_________1
 62
     7
 10
-31.008555999999999
 20
161.18702099999999
 30
0.0
 40
3.7185199999999989
 50
294.47216700000001
 51
296.40028000000001
  0
ARC
  5
24C
  8
_________1
 62
     7
 10
-30.709811999999999
 20
160.70377099999999
 30
0.0
 40
3.1532759999999991
 50
295.44236999999998
 51
297.11094800000001
  0
ENDBLK
  5
24D
  8
_________1
  0
BLOCK
  8
_________1
  2
AIGNBL02010041
 70
     0
 10
0.0
 20
0.0
 30
0.0
  3
AIGNBL02010041
  1

  0
LINE
  5
250
  8
_________1
 62
     7
 10
-33.9895
 20
157.93799999999999
 30
0.0
 11
-33.985700000000001
 21
157.93600000000001
 31
0.0
  0
ENDBLK
  5
251
  8
_________1
  0
BLOCK
  8
_________1
  2
AIGNBL02010042
 70
     0
 10
0.0
 20
0.0
 30
0.0
  3
AIGNBL02010042
  1

  0
ARC
  5
254
  8
_________1
 62
     7
 10
-27.658192
 20
148.17047299999999
 30
0.0
 40
0.519604
 50
45.063845000000001
 51
47.482204000000003
  0
LINE
  5
255
  8
_________1
 62
     7
 10
-27.306999999999999
 20
148.553
 30
0.0
 11
-27.356300000000001
 21
148.59999999999999
 31
0.0
  0
LINE
  5
256
  8
_________1
 62
     7
 10
-27.356300000000001
 20
148.59999999999999
 30
0.0
 11
-27.439299999999999
 21
148.67699999999999
 31
0.0
  0
ARC
  5
257
  8
_________1
 62
     7
 10
-44.545341000000001
 20
130.46390700000001
 30
0.0
 40
24.986495000000001
 50
46.795015999999997
 51
47.16671199999999
  0
ARC
  5
258
  8
_________1
 62
     7
 10
43.148901999999993
 20
225.19330600000001
 30
0.0
 40
104.102395
 50
227.10115999999999
 51
227.21856
  0
ARC
  5
259
  8
_________1
 62
     7
 10
-130.387494
 20
37.247371999999999
 30
0.0
 40
151.70809399999999
 50
47.407339
 51
47.508175000000008
  0
ARC
  5
25A
  8
_________1
 62
     7
 10
-65.960352999999998
 20
107.638626
 30
0.0
 40
56.283880000000011
 50
47.466085
 51
47.800723999999988
  0
ARC
  5
25B
  8
_________1
 62
     7
 10
-101.31383099999999
 20
68.216351000000003
 30
0.0
 40
109.236131
 50
47.952865000000003
 51
48.161307000000008
  0
ARC
  5
25C
  8
_________1
 62
     7
 10
-55.666085000000002
 20
119.029822
 30
0.0
 40
40.930269000000003
 50
48.321377000000012
 51
48.97027099999999
  0
ARC
  5
25D
  8
_________1
 62
     7
 10
-44.840553
 20
131.47671
 30
0.0
 40
24.434296
 50
48.960146000000002
 51
50.11538800000001
  0
ARC
  5
25E
  8
_________1
 62
     7
 10
-43.171002000000001
 20
133.449198
 30
0.0
 40
21.850149999999999
 50
50.158034000000001
 51
51.424212999999988
  0
ARC
  5
25F
  8
_________1
 62
     7
 10
-38.110399999999998
 20
139.70057499999999
 30
0.0
 40
13.807511
 50
51.665962
 51
53.510865000000003
  0
ARC
  5
260
  8
_________1
 62
     7
 10
-34.865997999999998
 20
144.061677
 30
0.0
 40
8.3719809999999981
 50
53.613403000000012
 51
56.345835999999998
  0
ARC
  5
261
  8
_________1
 62
     7
 10
-33.529038
 20
146.04494700000001
 30
0.0
 40
5.980213
 50
56.478029000000006
 51
59.950060999999998
  0
ARC
  5
262
  8
_________1
 62
     7
 10
-32.685009000000001
 20
147.451258
 30
0.0
 40
4.3403539999999996
 50
60.298099999999998
 51
64.637932999999975
  0
ARC
  5
263
  8
_________1
 62
     7
 10
-32.060029999999998
 20
148.70424399999999
 30
0.0
 40
2.9405639999999988
 50
65.184349999999995
 51
70.833375000000004
  0
ARC
  5
264
  8
_________1
 62
     7
 10
-31.800515000000001
 20
149.385009
 30
0.0
 40
2.2124380000000001
 50
71.393376000000004
 51
78.028765000000007
  0
ARC
  5
265
  8
_________1
 62
     7
 10
-31.713678000000002
 20
149.73166599999999
 30
0.0
 40
1.8553539999999999
 50
78.431581999999992
 51
85.665919999999986
  0
ARC
  5
266
  8
_________1
 62
     7
 10
-31.691531000000001
 20
149.974806
 30
0.0
 40
1.61124
 50
85.797833999999995
 51
93.853315000000009
  0
ARC
  5
267
  8
_________1
 62
     7
 10
-31.693297999999999
 20
149.91792599999999
 30
0.0
 40
1.667881999999999
 50
93.66143799999999
 51
101.717106
  0
ARC
  5
268
  8
_________1
 62
     7
 10
-31.643792000000001
 20
149.626104
 30
0.0
 40
1.963706
 50
101.40230699999999
 51
108.905806
  0
ARC
  5
269
  8
_________1
 62
     7
 10
-31.479551000000001
 20
149.096836
 30
0.0
 40
2.517688999999999
 50
108.539213
 51
115.139453
  0
ARC
  5
26A
  8
_________1
 62
     7
 10
-31.086704999999998
 20
148.19227000000001
 30
0.0
 40
3.5035790000000002
 50
114.670976
 51
120.06541900000001
  0
ARC
  5
26B
  8
_________1
 62
     7
 10
-30.283915000000011
 20
146.74994100000001
 30
0.0
 40
5.1541110000000003
 50
119.756235
 51
123.793513
  0
ARC
  5
26C
  8
_________1
 62
     7
 10
-28.846404
 20
144.53397699999999
 30
0.0
 40
7.7953210000000004
 50
123.51506500000001
 51
126.460877
  0
ARC
  5
26D
  8
_________1
 62
     7
 10
-26.631356
 20
141.49207100000001
 30
0.0
 40
11.558187999999999
 50
126.33078
 51
128.54194200000001
  0
ARC
  5
26E
  8
_________1
 62
     7
 10
-23.972714
 20
138.04547400000001
 30
0.0
 40
15.910663
 50
128.296817
 51
130.04111
  0
ARC
  5
26F
  8
_________1
 62
     7
 10
-16.470880000000001
 20
129.053788
 30
0.0
 40
27.620784
 50
129.955206
 51
130.97817699999999
  0
ARC
  5
270
  8
_________1
 62
     7
 10
-12.292827000000001
 20
124.233665
 30
0.0
 40
33.999630000000003
 50
130.96698699999999
 51
131.748976
  0
ARC
  5
271
  8
_________1
 62
     7
 10
-15.818716999999999
 20
128.032298
 30
0.0
 40
28.817986000000001
 50
131.54783599999999
 51
132.337952
  0
ARC
  5
272
  8
_________1
 62
     7
 10
13.239901
 20
95.866404999999986
 30
0.0
 40
72.165816000000007
 50
132.19177400000001
 51
132.452583
  0
ARC
  5
273
  8
_________1
 62
     7
 10
58.899303000000003
 20
46.457174000000002
 30
0.0
 40
139.44132300000001
 50
132.59183899999999
 51
132.701538
  0
ARC
  5
274
  8
_________1
 62
     7
 10
-3.2363189999999991
 20
113.71922000000001
 30
0.0
 40
47.871611999999992
 50
132.644701
 51
132.899721
  0
LINE
  5
275
  8
_________1
 62
     7
 10
-35.823399999999999
 20
148.78700000000001
 30
0.0
 11
-35.9422
 21
148.67699999999999
 31
0.0
  0
ARC
  5
276
  8
_________1
 62
     7
 10
-43.468133999999999
 20
156.69062
 30
0.0
 40
10.993672
 50
312.61087099999997
 51
313.20163500000001
  0
ARC
  5
277
  8
_________1
 62
     7
 10
-39.712567999999997
 20
152.458077
 30
0.0
 40
5.3370419999999994
 50
312.97866600000009
 51
313.70077900000001
  0
ARC
  5
278
  8
_________1
 62
     7
 10
-35.823543000000001
 20
148.26951699999989
 30
0.0
 40
0.378727
 50
131.433785
 51
134.78980899999999
  0
ENDBLK
  5
279
  8
_________1
  0
BLOCK
  8
_________1
  2
AIGNBL02010043
 70
     0
 10
0.0
 20
0.0
 30
0.0
  3
AIGNBL02010043
  1

  0
ARC
  5
27C
  8
_________1
 62
     7
 10
-31.591608999999998
 20
162.90020999999999
 30
0.0
 40
19.933024
 50
89.997354999999985
 51
90.673725000000005
  0
ARC
  5
27D
  8
_________1
 62
     7
 10
-31.621427000000001
 20
165.46942100000001
 30
0.0
 40
17.363641000000001
 50
90.675023999999993
 51
91.443641
  0
ARC
  5
27E
  8
_________1
 62
     7
 10
-31.609493000000001
 20
164.140916
 30
0.0
 40
18.692036999999999
 50
91.377615000000006
 51
92.078075999999996
  0
ARC
  5
27F
  8
_________1
 62
     7
 10
-31.617939
 20
164.86921799999999
 30
0.0
 40
17.963916999999999
 50
92.135386999999994
 51
92.843697999999975
  0
ARC
  5
280
  8
_________1
 62
     7
 10
-31.669619000000001
 20
166.56522899999999
 30
0.0
 40
16.267462999999999
 50
92.958258999999998
 51
93.709421999999989
  0
ARC
  5
281
  8
_________1
 62
     7
 10
-32.164138999999999
 20
173.706616
 30
0.0
 40
9.1090970000000002
 50
93.511537000000004
 51
94.784738000000004
  0
ARC
  5
282
  8
_________1
 62
     7
 10
-32.174616
 20
173.41577899999999
 30
0.0
 40
9.3981119999999994
 50
94.573183999999998
 51
95.730958000000015
  0
ARC
  5
283
  8
_________1
 62
     7
 10
-31.983172
 20
171.73680100000001
 30
0.0
 40
11.087838
 50
95.848927000000003
 51
96.757009000000025
  0
ARC
  5
284
  8
_________1
 62
     7
 10
-32.567146000000001
 20
176.83093299999999
 30
0.0
 40
5.9604109999999988
 50
96.944003999999993
 51
98.474641000000005
  0
ARC
  5
285
  8
_________1
 62
     7
 10
-32.610739000000002
 20
177.16180700000001
 30
0.0
 40
5.6267279999999991
 50
98.532123999999996
 51
99.982350000000011
  0
ARC
  5
286
  8
_________1
 62
     7
 10
-33.06740700000001
 20
179.84789699999999
 30
0.0
 40
2.9021849999999989
 50
100.29555999999999
 51
102.73208
  0
ARC
  5
287
  8
_________1
 62
     7
 10
-33.251499000000003
 20
180.70203699999999
 30
0.0
 40
2.0284939999999989
 50
102.97727500000001
 51
105.921887
  0
ARC
  5
288
  8
_________1
 62
     7
 10
-33.565428999999988
 20
181.81247999999999
 30
0.0
 40
0.874535
 50
106.10126099999999
 51
111.588707
  0
ARC
  5
289
  8
_________1
 62
     7
 10
-33.711596999999998
 20
182.190707
 30
0.0
 40
0.4690710000000001
 50
111.985844
 51
119.755312
  0
ARC
  5
28A
  8
_________1
 62
     7
 10
-33.868138999999999
 20
182.47040999999999
 30
0.0
 40
0.148584
 50
120.878714
 51
138.16651999999999
  0
ARC
  5
28B
  8
_________1
 62
     7
 10
-33.934998999999998
 20
182.534888
 30
0.0
 40
0.055869
 50
141.70526899999999
 51
173.983802
  0
ENDBLK
  5
28C
  8
_________1
  0
BLOCK
  8
_________1
  2
AIGNBL02010044
 70
     0
 10
0.0
 20
0.0
 30
0.0
  3
AIGNBL02010044
  1

  0
ARC
  5
28F
  8
_________1
 62
     7
 10
-31.591576
 20
164.16421
 30
0.0
 40
18.613385999999998
 50
89.997267000000008
 51
90.697198999999998
  0
ARC
  5
290
  8
_________1
 62
     7
 10
-31.593952000000002
 20
164.26997499999999
 30
0.0
 40
18.507598999999999
 50
90.693830000000005
 51
91.39573399999999
  0
ARC
  5
291
  8
_________1
 62
     7
 10
-31.546485000000001
 20
162.427392
 30
0.0
 40
20.350792999999999
 50
91.402973999999986
 51
92.033721999999997
  0
ARC
  5
292
  8
_________1
 62
     7
 10
-31.543188000000001
 20
163.58532500000001
 30
0.0
 40
19.193757000000002
 50
92.166223000000002
 51
92.816796999999994
  0
ARC
  5
293
  8
_________1
 62
     7
 10
-31.427323000000001
 20
162.56869900000001
 30
0.0
 40
20.214955
 50
93.003197000000014
 51
93.596894999999989
  0
ARC
  5
294
  8
_________1
 62
     7
 10
-32.063889000000003
 20
172.61254299999999
 30
0.0
 40
10.150962
 50
93.567571000000015
 51
94.688613999999987
  0
ARC
  5
295
  8
_________1
 62
     7
 10
-32.030512000000002
 20
172.11873299999999
 30
0.0
 40
10.645851
 50
94.650407999999985
 51
95.65200200000001
  0
ARC
  5
296
  8
_________1
 62
     7
 10
-31.598725000000002
 20
168.52356599999999
 30
0.0
 40
14.266265000000001
 50
95.955678000000006
 51
96.648912999999993
  0
ARC
  5
297
  8
_________1
 62
     7
 10
-32.284989000000003
 20
174.925049
 30
0.0
 40
7.8286039999999986
 50
97.084744000000001
 51
98.229602999999997
  0
ARC
  5
298
  8
_________1
 62
     7
 10
-32.841160000000002
 20
178.79414
 30
0.0
 40
3.9197459999999991
 50
98.279009999999985
 51
100.320267
  0
ARC
  5
299
  8
_________1
 62
     7
 10
-32.959668999999998
 20
179.468636
 30
0.0
 40
3.2349329999999998
 50
100.39543999999999
 51
102.543598
  0
ARC
  5
29A
  8
_________1
 62
     7
 10
-33.290589000000011
 20
180.98046400000001
 30
0.0
 40
1.6873309999999999
 50
102.724318
 51
106.19209499999999
  0
ARC
  5
29B
  8
_________1
 62
     7
 10
-33.535820000000001
 20
181.81208000000001
 30
0.0
 40
0.820326
 50
105.940625
 51
111.68812200000001
  0
ARC
  5
29C
  8
_________1
 62
     7
 10
-33.682523000000003
 20
182.17998600000001
 30
0.0
 40
0.42425
 50
111.64007099999991
 51
120.075367
  0
ARC
  5
29D
  8
_________1
 62
     7
 10
-33.824084999999997
 20
182.425488
 30
0.0
 40
0.140859
 50
120.28992599999999
 51
138.288859
  0
ARC
  5
29E
  8
_________1
 62
     7
 10
-33.884895
 20
182.48559800000001
 30
0.0
 40
0.055643
 50
142.836252
 51
174.28999300000001
  0
ARC
  5
29F
  8
_________1
 62
     7
 10
-33.896872999999999
 20
182.49196699999999
 30
0.0
 40
0.043397
 50
181.09981999999999
 51
221.77393499999999
  0
ARC
  5
2A0
  8
_________1
 62
     7
 10
-33.848666999999999
 20
182.526735
 30
0.0
 40
0.102696
 50
218.3211959999999
 51
243.100019
  0
ARC
  5
2A1
  8
_________1
 62
     7
 10
-33.703400000000009
 20
182.759207
 30
0.0
 40
0.376527
 50
239.38890699999999
 51
248.895655
  0
ARC
  5
2A2
  8
_________1
 62
     7
 10
-33.554910999999997
 20
183.114158
 30
0.0
 40
0.761212
 50
248.08849900000001
 51
254.28275400000001
  0
ARC
  5
2A3
  8
_________1
 62
     7
 10
-33.310341999999999
 20
183.935868
 30
0.0
 40
1.6185
 50
253.82853800000001
 51
257.44232
  0
ARC
  5
2A4
  8
_________1
 62
     7
 10
-33.097366999999998
 20
184.817398
 30
0.0
 40
2.5253000000000001
 50
257.07440200000002
 51
259.82709599999998
  0
ARC
  5
2A5
  8
_________1
 62
     7
 10
-32.844794999999998
 20
186.19559799999999
 30
0.0
 40
3.926445999999999
 50
259.751441
 51
261.78880900000001
  0
ARC
  5
2A6
  8
_________1
 62
     7
 10
-32.585059000000001
 20
187.78008700000001
 30
0.0
 40
5.531873
 50
261.47008
 51
263.09052800000001
  0
ARC
  5
2A7
  8
_________1
 62
     7
 10
-32.275461
 20
190.40512799999999
 30
0.0
 40
8.1750990000000012
 50
263.14972299999999
 51
264.35936400000003
  0
ARC
  5
2A8
  8
_________1
 62
     7
 10
-32.184911999999997
 20
191.15097600000001
 30
0.0
 40
8.9262519999999999
 50
264.25151899999997
 51
265.44607100000002
  0
ARC
  5
2A9
  8
_________1
 62
     7
 10
-32.074244
 20
192.10752500000001
 30
0.0
 40
9.8886280000000006
 50
265.24691799999999
 51
266.39777500000002
  0
ARC
  5
2AA
  8
_________1
 62
     7
 10
-31.662203000000002
 20
198.34007199999999
 30
0.0
 40
16.13476
 50
266.328036
 51
267.07187099999999
  0
ARC
  5
2AB
  8
_________1
 62
     7
 10
-31.726475000000001
 20
197.46185199999999
 30
0.0
 40
15.254417
 50
267.14445799999999
 51
267.96301199999999
  0
ARC
  5
2AC
  8
_________1
 62
     7
 10
-31.662769000000001
 20
198.26717300000001
 30
0.0
 40
16.061530999999999
 50
267.83801299999999
 51
268.637225
  0
ARC
  5
2AD
  8
_________1
 62
     7
 10
-31.591135999999999
 20
200.885603
 30
0.0
 40
18.680925999999999
 50
268.60857900000002
 51
269.305027
  0
ARC
  5
2AE
  8
_________1
 62
     7
 10
-31.617303
 20
198.568545
 30
0.0
 40
16.363721000000002
 50
269.29823599999997
 51
270.09318500000001
  0
ENDBLK
  5
2AF
  8
_________1
  0
BLOCK
  8
_________1
  2
AIGNBL02010045
 70
     0
 10
0.0
 20
0.0
 30
0.0
  3
AIGNBL02010045
  1

  0
ARC
  5
2B2
  8
_________1
 62
     7
 10
-31.589808000000001
 20
203.47717299999999
 30
0.0
 40
21.272327000000001
 50
269.99762800000002
 51
270.61006800000001
  0
ARC
  5
2B3
  8
_________1
 62
     7
 10
-31.589511000000002
 20
200.826277
 30
0.0
 40
18.621599
 50
270.69599899999997
 51
271.39360499999998
  0
ARC
  5
2B4
  8
_________1
 62
     7
 10
-31.538112000000002
 20
198.900847
 30
0.0
 40
16.695489999999999
 50
271.37796900000001
 51
272.14683300000002
  0
ARC
  5
2B5
  8
_________1
 62
     7
 10
-31.444320000000001
 20
197.24177499999999
 30
0.0
 40
15.034102000000001
 50
272.02649400000001
 51
272.85835600000001
  0
ARC
  5
2B6
  8
_________1
 62
     7
 10
-31.579815
 20
199.39762300000001
 30
0.0
 40
17.194047000000001
 50
272.95106199999998
 51
273.64906999999999
  0
ARC
  5
2B7
  8
_________1
 62
     7
 10
-31.289936000000001
 20
194.590947
 30
0.0
 40
12.378678000000001
 50
273.726046
 51
274.64380499999999
  0
ARC
  5
2B8
  8
_________1
 62
     7
 10
-31.037499
 20
191.62536800000001
 30
0.0
 40
9.4024039999999989
 50
274.573646
 51
275.70979299999999
  0
ARC
  5
2B9
  8
_________1
 62
     7
 10
-30.898367
 20
190.321483
 30
0.0
 40
8.0911500000000007
 50
275.6480600000001
 51
276.86782599999998
  0
ARC
  5
2BA
  8
_________1
 62
     7
 10
-30.716505999999999
 20
188.68209100000001
 30
0.0
 40
6.4417929999999988
 50
277.00551400000001
 51
278.40009500000002
  0
ARC
  5
2BB
  8
_________1
 62
     7
 10
-30.335263000000001
 20
186.14946499999999
 30
0.0
 40
3.8806500000000002
 50
278.29415599999999
 51
280.35095899999999
  0
ARC
  5
2BC
  8
_________1
 62
     7
 10
-30.053837999999999
 20
184.68641500000001
 30
0.0
 40
2.390884999999999
 50
280.01621
 51
282.92286799999999
  0
ARC
  5
2BD
  8
_________1
 62
     7
 10
-29.849415000000011
 20
183.85142200000001
 30
0.0
 40
1.531374999999999
 50
282.45486299999999
 51
286.27431899999999
  0
ARC
  5
2BE
  8
_________1
 62
     7
 10
-29.671233000000001
 20
183.245532
 30
0.0
 40
0.8998310000000001
 50
286.19474200000002
 51
291.43404500000003
  0
ARC
  5
2BF
  8
_________1
 62
     7
 10
-29.512881
 20
182.834081
 30
0.0
 40
0.4589780000000001
 50
291.80305199999998
 51
299.637877
  0
ARC
  5
2C0
  8
_________1
 62
     7
 10
-29.359172000000001
 20
182.55816799999999
 30
0.0
 40
0.143181
 50
300.77628299999998
 51
318.37327499999998
  0
ARC
  5
2C1
  8
_________1
 62
     7
 10
-29.297559
 20
182.49778499999999
 30
0.0
 40
0.05717
 50
322.59378299999997
 51
353.31938600000001
  0
ARC
  5
2C2
  8
_________1
 62
     7
 10
-29.283470000000001
 20
182.49018799999999
 30
0.0
 40
0.042703
 50
1.269293
 51
42.817537000000002
  0
ARC
  5
2C3
  8
_________1
 62
     7
 10
-29.330282
 20
182.45850899999999
 30
0.0
 40
0.098945
 50
37.843567999999998
 51
63.577607
  0
ARC
  5
2C4
  8
_________1
 62
     7
 10
-29.469649
 20
182.24025900000001
 30
0.0
 40
0.357486
 50
59.135080000000009
 51
69.149441999999993
  0
ARC
  5
2C5
  8
_________1
 62
     7
 10
-29.614501000000001
 20
181.90325000000001
 30
0.0
 40
0.724146
 50
67.929785999999993
 51
74.441427000000004
  0
ARC
  5
2C6
  8
_________1
 62
     7
 10
-29.829819000000001
 20
181.21695099999999
 30
0.0
 40
1.4432389999999991
 50
73.514523999999994
 51
77.569023999999999
  0
ARC
  5
2C7
  8
_________1
 62
     7
 10
-30.108978
 20
180.02426500000001
 30
0.0
 40
2.668104
 50
77.228161999999998
 51
79.832759999999993
  0
ARC
  5
2C8
  8
_________1
 62
     7
 10
-30.335003
 20
178.82602299999999
 30
0.0
 40
3.8874439999999999
 50
79.671231999999989
 51
81.729450999999983
  0
ARC
  5
2C9
  8
_________1
 62
     7
 10
-30.481338999999998
 20
178.012236
 30
0.0
 40
4.7138989999999987
 50
81.392116999999999
 51
83.293495999999976
  0
ARC
  5
2CA
  8
_________1
 62
     7
 10
-30.978984000000001
 20
174.005505
 30
0.0
 40
8.7513699999999996
 50
83.121173999999996
 51
84.249038999999996
  0
ARC
  5
2CB
  8
_________1
 62
     7
 10
-31.508482999999998
 20
168.122838
 30
0.0
 40
14.657621000000001
 50
84.493882999999997
 51
85.222677999999988
  0
ARC
  5
2CC
  8
_________1
 62
     7
 10
-30.99736
 20
174.27705700000001
 30
0.0
 40
8.4822140000000008
 50
85.201086999999987
 51
86.542687999999998
  0
ARC
  5
2CD
  8
_________1
 62
     7
 10
-31.304231000000001
 20
170.37002200000001
 30
0.0
 40
12.400846
 50
86.216029000000006
 51
87.183839000000006
  0
ARC
  5
2CE
  8
_________1
 62
     7
 10
-31.445726000000001
 20
168.00861399999999
 30
0.0
 40
14.766375
 50
87.085650999999984
 51
87.931289000000007
  0
ARC
  5
2CF
  8
_________1
 62
     7
 10
-31.495087000000002
 20
167.08778100000001
 30
0.0
 40
15.688397999999999
 50
87.872530999999995
 51
88.690733000000009
  0
ARC
  5
2D0
  8
_________1
 62
     7
 10
-31.587506000000001
 20
164.265906
 30
0.0
 40
18.511669999999999
 50
88.604324000000005
 51
89.306072999999998
  0
ARC
  5
2D1
  8
_________1
 62
     7
 10
-31.589815000000002
 20
164.16285300000001
 30
0.0
 40
18.614743000000001
 50
89.302807000000001
 51
90.002688000000006
  0
ENDBLK
  5
2D2
  8
_________1
  0
BLOCK
  8
_________1
  2
AIGNBL02010046
 70
     0
 10
0.0
 20
0.0
 30
0.0
  3
AIGNBL02010046
  1

  0
ARC
  5
2D5
  8
_________1
 62
     7
 10
-29.233979999999999
 20
182.539939
 30
0.0
 40
0.043164
 50
1.068254
 51
43.242634999999993
  0
ARC
  5
2D6
  8
_________1
 62
     7
 10
-29.283719000000001
 20
182.50619800000001
 30
0.0
 40
0.102952
 50
37.949935000000004
 51
63.004792000000002
  0
ARC
  5
2D7
  8
_________1
 62
     7
 10
-29.429369999999999
 20
182.27405099999999
 30
0.0
 40
0.37671
 50
59.290165000000002
 51
68.968638999999996
  0
ARC
  5
2D8
  8
_________1
 62
     7
 10
-29.566143
 20
181.958426
 30
0.0
 40
0.720538
 50
67.824267000000006
 51
74.485725000000002
  0
ARC
  5
2D9
  8
_________1
 62
     7
 10
-29.790492
 20
181.24717999999999
 30
0.0
 40
1.466107
 50
73.472242000000008
 51
77.533749
  0
ARC
  5
2DA
  8
_________1
 62
     7
 10
-30.046610999999999
 20
180.170591
 30
0.0
 40
2.5726610000000001
 50
77.139907999999991
 51
79.89609200000001
  0
ARC
  5
2DB
  8
_________1
 62
     7
 10
-30.473763000000002
 20
177.767312
 30
0.0
 40
5.0136059999999993
 50
79.908542000000011
 51
81.532244999999975
  0
ARC
  5
2DC
  8
_________1
 62
     7
 10
-30.634896999999999
 20
176.663814
 30
0.0
 40
6.1288019999999994
 50
81.561367000000004
 51
83.053138000000004
  0
ARC
  5
2DD
  8
_________1
 62
     7
 10
-31.200275999999999
 20
171.71811
 30
0.0
 40
11.106642000000001
 50
83.243740000000003
 51
84.150284999999997
  0
ARC
  5
2DE
  8
_________1
 62
     7
 10
-32.02186300000001
 20
162.15743699999999
 30
0.0
 40
20.701861000000001
 50
84.585113000000007
 51
85.110704999999996
  0
ARC
  5
2DF
  8
_________1
 62
     7
 10
-31.119437999999999
 20
172.297549
 30
0.0
 40
10.521789999999999
 50
85.300717000000006
 51
86.402967999999987
  0
ARC
  5
2E0
  8
_________1
 62
     7
 10
-31.512464000000001
 20
166.553214
 30
0.0
 40
16.279498
 50
86.290835999999985
 51
87.041443000000015
  0
ARC
  5
2E1
  8
_________1
 62
     7
 10
-31.558823
 20
164.97549799999999
 30
0.0
 40
17.857538999999999
 50
87.154172000000003
 51
87.866703000000015
  0
ARC
  5
2E2
  8
_________1
 62
     7
 10
-31.580662
 20
163.85013599999999
 30
0.0
 40
18.982944
 50
87.927271999999988
 51
88.616997999999995
  0
ARC
  5
2E3
  8
_________1
 62
     7
 10
-31.651765999999999
 20
160.50436099999999
 30
0.0
 40
22.329463000000001
 50
88.641806000000003
 51
89.239489000000006
  0
ARC
  5
2E4
  8
_________1
 62
     7
 10
-31.590125
 20
162.84039799999999
 30
0.0
 40
19.992837000000002
 50
89.327267000000006
 51
90.001613000000006
  0
ENDBLK
  5
2E5
  8
_________1
  0
BLOCK
  8
_________1
  2
AIGNBL02010047
 70
     0
 10
0.0
 20
0.0
 30
0.0
  3
AIGNBL02010047
  1

  0
LINE
  5
2E8
  8
_________1
 62
     7
 10
-29.1919
 20
157.93799999999999
 30
0.0
 11
-29.193200000000001
 21
157.93700000000001
 31
0.0
  0
ENDBLK
  5
2E9
  8
_________1
  0
BLOCK
  8
_________1
  2
AIGNBL02010048
 70
     0
 10
0.0
 20
0.0
 30
0.0
  3
AIGNBL02010048
  1

  0
ARC
  5
2EC
  8
_________1
 62
     7
 10
-31.381671999999998
 20
162.20957799999999
 30
0.0
 40
4.8006199999999994
 50
296.05847899999998
 51
296.779312
  0
ARC
  5
2ED
  8
_________1
 62
     7
 10
-29.503874
 20
158.51048399999999
 30
0.0
 40
0.6522800000000001
 50
295.92233599999997
 51
298.43990000000002
  0
ENDBLK
  5
2EE
  8
_________1
  0
BLOCK
  8
_________1
  2
AIGNBL02010049
 70
     0
 10
0.0
 20
0.0
 30
0.0
  3
AIGNBL02010049
  1

  0
ARC
  5
2F1
  8
_________1
 62
     7
 10
-33.905845999999997
 20
182.54107500000001
 30
0.0
 40
0.084715
 50
180.22419099999999
 51
205.52584899999999
  0
ARC
  5
2F2
  8
_________1
 62
     7
 10
-33.888649000000001
 20
182.545016
 30
0.0
 40
0.102005
 50
203.36033599999999
 51
225.42235099999999
  0
ARC
  5
2F3
  8
_________1
 62
     7
 10
-33.838317000000004
 20
182.59072
 30
0.0
 40
0.169928
 50
224.14999399999999
 51
239.28792300000009
  0
ARC
  5
2F4
  8
_________1
 62
     7
 10
-33.751719999999999
 20
182.71629999999999
 30
0.0
 40
0.322287
 50
237.45384300000001
 51
247.54790499999999
  0
ARC
  5
2F5
  8
_________1
 62
     7
 10
-33.602012000000002
 20
183.03888699999999
 30
0.0
 40
0.6777670000000001
 50
246.26622699999999
 51
252.858834
  0
ARC
  5
2F6
  8
_________1
 62
     7
 10
-33.399275000000003
 20
183.654359
 30
0.0
 40
1.3257099999999991
 50
252.325695
 51
256.86747800000001
  0
ARC
  5
2F7
  8
_________1
 62
     7
 10
-33.185594000000002
 20
184.46294399999999
 30
0.0
 40
2.1618339999999989
 50
256.2213569999999
 51
259.49998399999998
  0
ARC
  5
2F8
  8
_________1
 62
     7
 10
-32.844563000000001
 20
186.23867300000001
 30
0.0
 40
3.9699939999999998
 50
259.33085299999999
 51
261.37856499999998
  0
ARC
  5
2F9
  8
_________1
 62
     7
 10
-32.628031
 20
187.577417
 30
0.0
 40
5.3260870000000002
 50
261.23441800000001
 51
262.94444499999997
  0
ARC
  5
2FA
  8
_________1
 62
     7
 10
-32.403883999999998
 20
189.26838599999999
 30
0.0
 40
7.0317990000000004
 50
262.82430199999999
 51
264.24535400000002
  0
ARC
  5
2FB
  8
_________1
 62
     7
 10
-32.258423000000001
 20
190.45541700000001
 30
0.0
 40
8.2274729999999998
 50
264.06633900000003
 51
265.38429200000002
  0
ARC
  5
2FC
  8
_________1
 62
     7
 10
-32.023121000000003
 20
192.82260299999999
 30
0.0
 40
10.606007999999999
 50
265.14634999999998
 51
266.2363410000001
  0
ARC
  5
2FD
  8
_________1
 62
     7
 10
-31.759440999999999
 20
196.842072
 30
0.0
 40
14.634117
 50
266.23920500000003
 51
267.07151499999998
  0
ARC
  5
2FE
  8
_________1
 62
     7
 10
-31.706187
 20
197.77246299999999
 30
0.0
 40
15.566013999999999
 50
267.05071400000003
 51
267.865635
  0
ARC
  5
2FF
  8
_________1
 62
     7
 10
-31.521913000000001
 20
203.20298099999999
 30
0.0
 40
20.999635999999999
 50
267.915031
 51
268.53759300000002
  0
ARC
  5
300
  8
_________1
 62
     7
 10
-31.535664000000001
 20
204.10415499999999
 30
0.0
 40
21.900196999999999
 50
268.63372600000002
 51
269.24132300000002
  0
ARC
  5
301
  8
_________1
 62
     7
 10
-31.59091500000001
 20
202.197238
 30
0.0
 40
19.992736999999991
 50
269.32728700000001
 51
270.00064900000001
  0
ENDBLK
  5
302
  8
_________1
  0
BLOCK
  8
_________1
  2
AIGNBL0201004A
 70
     0
 10
0.0
 20
0.0
 30
0.0
  3
AIGNBL0201004A
  1

  0
ARC
  5
305
  8
_________1
 62
     7
 10
-31.589774999999999
 20
202.07897
 30
0.0
 40
19.874469000000001
 50
269.997367
 51
270.674736
  0
ARC
  5
306
  8
_________1
 62
     7
 10
-31.558619
 20
199.47733299999999
 30
0.0
 40
17.272645999999991
 50
270.67301900000001
 51
271.44568600000002
  0
ARC
  5
307
  8
_________1
 62
     7
 10
-31.524640000000002
 20
198.8711999999999
 30
0.0
 40
16.665859000000001
 50
271.38148000000001
 51
272.16593599999999
  0
ARC
  5
308
  8
_________1
 62
     7
 10
-31.477018000000001
 20
197.85721599999999
 30
0.0
 40
15.650803
 50
272.13201400000003
 51
272.94378
  0
ARC
  5
309
  8
_________1
 62
     7
 10
-31.398033999999999
 20
196.25598199999999
 30
0.0
 40
14.047625
 50
272.95745499999998
 51
273.82455599999997
  0
ARC
  5
30A
  8
_________1
 62
     7
 10
-31.134259000000011
 20
192.655981
 30
0.0
 40
10.438072999999999
 50
273.69796600000001
 51
274.80730999999997
  0
ARC
  5
30B
  8
_________1
 62
     7
 10
-30.966822000000001
 20
190.842839
 30
0.0
 40
8.6172899999999988
 50
274.70825100000002
 51
275.96440699999999
  0
ARC
  5
30C
  8
_________1
 62
     7
 10
-30.775759000000011
 20
189.27771899999999
 30
0.0
 40
7.0408429999999989
 50
275.741466
 51
277.163478
  0
ARC
  5
30D
  8
_________1
 62
     7
 10
-30.584339
 20
187.81051400000001
 30
0.0
 40
5.5612240000000002
 50
277.09172799999999
 51
278.72944799999999
  0
ARC
  5
30E
  8
_________1
 62
     7
 10
-30.375305000000001
 20
186.43249499999999
 30
0.0
 40
4.1674439999999997
 50
278.76419700000002
 51
280.71060999999997
  0
ARC
  5
30F
  8
_________1
 62
     7
 10
-30.048166999999999
 20
184.73483100000001
 30
0.0
 40
2.4385650000000001
 50
280.57127700000001
 51
283.48482799999999
  0
ARC
  5
310
  8
_________1
 62
     7
 10
-29.872209999999999
 20
183.974377
 30
0.0
 40
1.658056
 50
283.69982299999998
 51
287.307931
  0
ARC
  5
311
  8
_________1
 62
     7
 10
-29.622140999999999
 20
183.15568099999999
 30
0.0
 40
0.8020479999999999
 50
287.65240399999999
 51
293.222576
  0
ARC
  5
312
  8
_________1
 62
     7
 10
-29.477957
 20
182.81056899999999
 30
0.0
 40
0.4280600000000001
 50
293.70136200000002
 51
301.29692999999997
  0
ARC
  5
313
  8
_________1
 62
     7
 10
-29.364111999999999
 20
182.61487099999999
 30
0.0
 40
0.201747
 50
302.54124400000001
 51
315.12689699999999
  0
ARC
  5
314
  8
_________1
 62
     7
 10
-29.309759
 20
182.558314
 30
0.0
 40
0.123337
 50
315.93145399999997
 51
334.16725099999991
  0
ARC
  5
315
  8
_________1
 62
     7
 10
-29.27985
 20
182.54129
 30
0.0
 40
0.089028
 50
335.64093200000002
 51
359.64835099999999
  0
ENDBLK
  5
316
  8
_________1
  0
BLOCK
  8
_________1
  2
AIGNBL0201004B
 70
     0
 10
0.0
 20
0.0
 30
0.0
  3
AIGNBL0201004B
  1

  0
ARC
  5
319
  8
_________1
 62
     7
 10
-15.995683
 20
257.302887
 30
0.0
 40
0.103765
 50
272.09513900000002
 51
358.00357200000008
  0
ENDBLK
  5
31A
  8
_________1
  0
BLOCK
  8
_________1
  2
AIGNBL0201004C
 70
     0
 10
0.0
 20
0.0
 30
0.0
  3
AIGNBL0201004C
  1

  0
ARC
  5
31D
  8
_________1
 62
     7
 10
-15.99569
 20
266.49462399999999
 30
0.0
 40
0.103778
 50
2.0984519999999991
 51
87.901539000000014
  0
ENDBLK
  5
31E
  8
_________1
  0
BLOCK
  8
_________1
  2
AIGNBL0201004D
 70
     0
 10
0.0
 20
0.0
 30
0.0
  3
AIGNBL0201004D
  1

  0
ARC
  5
321
  8
_________1
 62
     7
 10
-36.982729999999997
 20
257.40686599999998
 30
0.0
 40
0.207798
 50
182.11962700000001
 51
268.02826299999998
  0
ENDBLK
  5
322
  8
_________1
  0
BLOCK
  8
_________1
  2
AIGNBL0201004E
 70
     0
 10
0.0
 20
0.0
 30
0.0
  3
AIGNBL0201004E
  1

  0
ARC
  5
325
  8
_________1
 62
     7
 10
-36.981878999999999
 20
266.38979799999998
 30
0.0
 40
0.208688
 50
92.196966000000003
 51
177.605773
  0
ENDBLK
  5
326
  8
_________1
  0
BLOCK
  8
_________1
  2
AIGNBL0201004F
 70
     0
 10
0.0
 20
0.0
 30
0.0
  3
AIGNBL0201004F
  1

  0
ARC
  5
329
  8
_________1
 62
     7
 10
-12.980276999999999
 20
257.41738199999998
 30
0.0
 40
0.208355
 50
272.20930700000002
 51
357.74137300000001
  0
ENDBLK
  5
32A
  8
_________1
  0
BLOCK
  8
_________1
  2
AIGNBL02010050
 70
     0
 10
0.0
 20
0.0
 30
0.0
  3
AIGNBL02010050
  1

  0
ARC
  5
32D
  8
_________1
 62
     7
 10
-12.979552999999999
 20
266.38085899999999
 30
0.0
 40
0.207611
 50
2.1160519999999989
 51
87.98263900000002
  0
ENDBLK
  5
32E
  8
_________1
  0
BLOCK
  8
_________1
  2
AIGNBL02010051
 70
     0
 10
0.0
 20
0.0
 30
0.0
  3
AIGNBL02010051
  1

  0
ARC
  5
331
  8
_________1
 62
     7
 10
-12.979727
 20
262.49115399999999
 30
0.0
 40
0.207785
 50
2.113024999999999
 51
87.936293999999975
  0
ENDBLK
  5
332
  8
_________1
  0
BLOCK
  8
_________1
  2
AIGNBL02010052
 70
     0
 10
0.0
 20
0.0
 30
0.0
  3
AIGNBL02010052
  1

  0
ARC
  5
335
  8
_________1
 62
     7
 10
-12.980276999999999
 20
261.30709200000001
 30
0.0
 40
0.208355
 50
272.20930700000002
 51
357.74137300000001
  0
ENDBLK
  5
336
  8
_________1
  0
BLOCK
  8
_________1
  2
AIGNBL02010053
 70
     0
 10
0.0
 20
0.0
 30
0.0
  3
AIGNBL02010053
  1

  0
ARC
  5
339
  8
_________1
 62
     7
 10
-31.590692000000001
 20
261.89884799999999
 30
0.0
 40
2.3998689999999989
 50
0.00001
 51
89.999980000000008
  0
ARC
  5
33A
  8
_________1
 62
     7
 10
-31.590691
 20
261.89884799999999
 30
0.0
 40
2.3998689999999989
 50
90.0
 51
179.99996999999999
  0
ENDBLK
  5
33B
  8
_________1
  0
BLOCK
  8
_________1
  2
AIGNBL02010054
 70
     0
 10
0.0
 20
0.0
 30
0.0
  3
AIGNBL02010054
  1

  0
ARC
  5
33E
  8
_________1
 62
     7
 10
35.592230000000001
 20
182.25662500000001
 30
0.0
 40
0.051976
 50
265.01857000000001
 51
350.73140899999999
  0
ENDBLK
  5
33F
  8
_________1
  0
BLOCK
  8
_________1
  2
AIGNBL02010055
 70
     0
 10
0.0
 20
0.0
 30
0.0
  3
AIGNBL02010055
  1

  0
ARC
  5
342
  8
_________1
 62
     7
 10
30.931242999999998
 20
182.82880800000001
 30
0.0
 40
0.051813
 50
175.09895399999999
 51
261.26247999999998
  0
ENDBLK
  5
343
  8
_________1
  0
BLOCK
  8
_________1
  2
AIGNBL02010056
 70
     0
 10
0.0
 20
0.0
 30
0.0
  3
AIGNBL02010056
  1

  0
ARC
  5
346
  8
_________1
 62
     7
 10
68.252594999999999
 20
185.639453
 30
0.0
 40
7.5992410000000001
 50
0.00001
 51
89.999980000000008
  0
ENDBLK
  5
347
  8
_________1
  0
BLOCK
  8
_________1
  2
AIGNBL02010057
 70
     0
 10
0.0
 20
0.0
 30
0.0
  3
AIGNBL02010057
  1

  0
ARC
  5
34A
  8
_________1
 62
     7
 10
43.443550999999999
 20
185.76246599999999
 30
0.0
 40
7.314038
 50
139.22081800000001
 51
173.696551
  0
ARC
  5
34B
  8
_________1
 62
     7
 10
43.827125000000002
 20
185.48029199999999
 30
0.0
 40
7.7888799999999998
 50
101.762021
 51
139.49194800000001
  0
ARC
  5
34C
  8
_________1
 62
     7
 10
43.616937
 20
186.07870800000001
 30
0.0
 40
7.1606729999999992
 50
89.206304999999986
 51
101.091572
  0
ENDBLK
  5
34D
  8
_________1
  0
BLOCK
  8
_________1
  2
AIGNBL02010058
 70
     0
 10
0.0
 20
0.0
 30
0.0
  3
AIGNBL02010058
  1

  0
ARC
  5
350
  8
_________1
 62
     7
 10
68.252593999999988
 20
185.639453
 30
0.0
 40
12.398979000000001
 50
0.00001
 51
89.999980000000008
  0
ENDBLK
  5
351
  8
_________1
  0
BLOCK
  8
_________1
  2
AIGNBL02010059
 70
     0
 10
0.0
 20
0.0
 30
0.0
  3
AIGNBL02010059
  1

  0
ARC
  5
354
  8
_________1
 62
     7
 10
43.209465999999999
 20
185.854376
 30
0.0
 40
11.870614
 50
143.109736
 51
173.73157599999999
  0
ARC
  5
355
  8
_________1
 62
     7
 10
43.922184999999999
 20
185.361278
 30
0.0
 40
12.73668
 50
103.75719700000001
 51
143.260257
  0
ARC
  5
356
  8
_________1
 62
     7
 10
43.558962000000001
 20
186.30991800000001
 30
0.0
 40
11.729566999999999
 50
89.232263000000003
 51
103.135806
  0
ENDBLK
  5
357
  8
_________1
  0
BLOCK
  8
_________1
  2
AIGNBL0201005A
 70
     0
 10
0.0
 20
0.0
 30
0.0
  3
AIGNBL0201005A
  1

  0
ARC
  5
35A
  8
_________1
 62
     7
 10
-15.995696000000001
 20
148.642
 30
0.0
 40
0.103772
 50
272.10179099999999
 51
358.09545000000003
  0
ENDBLK
  5
35B
  8
_________1
  0
BLOCK
  8
_________1
  2
AIGNBL0201005B
 70
     0
 10
0.0
 20
0.0
 30
0.0
  3
AIGNBL0201005B
  1

  0
ARC
  5
35E
  8
_________1
 62
     7
 10
-15.995699999999999
 20
157.83389299999999
 30
0.0
 40
0.103788
 50
2.1037910000000002
 51
87.896198999999996
  0
ENDBLK
  5
35F
  8
_________1
  0
BLOCK
  8
_________1
  2
AIGNBL0201005C
 70
     0
 10
0.0
 20
0.0
 30
0.0
  3
AIGNBL0201005C
  1

  0
ARC
  5
362
  8
_________1
 62
     7
 10
-37.082464000000002
 20
148.74614
 30
0.0
 40
0.207971
 50
182.11659900000001
 51
267.98196100000001
  0
ENDBLK
  5
363
  8
_________1
  0
BLOCK
  8
_________1
  2
AIGNBL0201005D
 70
     0
 10
0.0
 20
0.0
 30
0.0
  3
AIGNBL0201005D
  1

  0
ARC
  5
366
  8
_________1
 62
     7
 10
-37.08178800000001
 20
157.72907699999999
 30
0.0
 40
0.208688
 50
92.196966000000003
 51
177.605773
  0
ENDBLK
  5
367
  8
_________1
  0
BLOCK
  8
_________1
  2
AIGNBL0201005E
 70
     0
 10
0.0
 20
0.0
 30
0.0
  3
AIGNBL0201005E
  1

  0
ARC
  5
36A
  8
_________1
 62
     7
 10
-31.590692000000001
 20
195.63856299999989
 30
0.0
 40
2.3998689999999989
 50
0.00001
 51
89.999980000000008
  0
ARC
  5
36B
  8
_________1
 62
     7
 10
-31.590691
 20
195.63856299999989
 30
0.0
 40
2.3998689999999989
 50
90.0
 51
179.99996999999999
  0
ENDBLK
  5
36C
  8
_________1
  0
BLOCK
  8
_________1
  2
AIGNBL0201005F
 70
     0
 10
0.0
 20
0.0
 30
0.0
  3
AIGNBL0201005F
  1

  0
LINE
  5
36F
  8
_________1
 62
     7
 10
-12.7721
 20
266.38900000000001
 30
0.0
 11
-12.7721
 21
257.40899999999999
 31
0.0
  0
ENDBLK
  5
370
  8
_________1
  0
BLOCK
  8
_________1
  2
AIGNBL02010060
 70
     0
 10
0.0
 20
0.0
 30
0.0
  3
AIGNBL02010060
  1

  0
LINE
  5
373
  8
_________1
 62
     7
 10
-12.972200000000001
 20
266.58800000000002
 30
0.0
 11
-12.972200000000001
 21
257.209
 31
0.0
  0
ENDBLK
  5
374
  8
_________1
  0
BLOCK
  8
_________1
  2
AIGNBL02010061
 70
     0
 10
0.0
 20
0.0
 30
0.0
  3
AIGNBL02010061
  1

  0
LINE
  5
377
  8
_________1
 62
     7
 10
-15.571899999999999
 20
266.58800000000002
 30
0.0
 11
-15.571899999999999
 21
257.209
 31
0.0
  0
ENDBLK
  5
378
  8
_________1
  0
BLOCK
  8
_________1
  2
AIGNBL02010062
 70
     0
 10
0.0
 20
0.0
 30
0.0
  3
AIGNBL02010062
  1

  0
LINE
  5
37B
  8
_________1
 62
     7
 10
-15.891999999999999
 20
266.49799999999999
 30
0.0
 11
-15.891999999999999
 21
257.29899999999998
 31
0.0
  0
ENDBLK
  5
37C
  8
_________1
  0
BLOCK
  8
_________1
  2
AIGNBL02010063
 70
     0
 10
0.0
 20
0.0
 30
0.0
  3
AIGNBL02010063
  1

  0
LINE
  5
37F
  8
_________1
 62
     7
 10
-15.991899999999999
 20
266.59800000000001
 30
0.0
 11
-15.991899999999999
 21
257.19900000000001
 31
0.0
  0
ENDBLK
  5
380
  8
_________1
  0
BLOCK
  8
_________1
  2
AIGNBL02010064
 70
     0
 10
0.0
 20
0.0
 30
0.0
  3
AIGNBL02010064
  1

  0
LINE
  5
383
  8
_________1
 62
     7
 10
-29.190799999999999
 20
261.899
 30
0.0
 11
-29.190799999999999
 21
216.90899999999999
 31
0.0
  0
ENDBLK
  5
384
  8
_________1
  0
BLOCK
  8
_________1
  2
AIGNBL02010065
 70
     0
 10
0.0
 20
0.0
 30
0.0
  3
AIGNBL02010065
  1

  0
LINE
  5
387
  8
_________1
 62
     7
 10
-15.891999999999999
 20
257.572
 30
0.0
 11
-15.571899999999999
 21
257.86900000000003
 31
0.0
  0
ENDBLK
  5
388
  8
_________1
  0
BLOCK
  8
_________1
  2
AIGNBL02010066
 70
     0
 10
0.0
 20
0.0
 30
0.0
  3
AIGNBL02010066
  1

  0
LINE
  5
38B
  8
_________1
 62
     7
 10
-33.990600000000001
 20
261.899
 30
0.0
 11
-33.990600000000001
 21
216.90899999999999
 31
0.0
  0
ENDBLK
  5
38C
  8
_________1
  0
BLOCK
  8
_________1
  2
AIGNBL02010067
 70
     0
 10
0.0
 20
0.0
 30
0.0
  3
AIGNBL02010067
  1

  0
LINE
  5
38F
  8
_________1
 62
     7
 10
-36.989899999999999
 20
257.19900000000001
 30
0.0
 11
-36.989899999999999
 21
266.59800000000001
 31
0.0
  0
ENDBLK
  5
390
  8
_________1
  0
BLOCK
  8
_________1
  2
AIGNBL02010068
 70
     0
 10
0.0
 20
0.0
 30
0.0
  3
AIGNBL02010068
  1

  0
LINE
  5
393
  8
_________1
 62
     7
 10
-37.190399999999997
 20
257.399
 30
0.0
 11
-37.190399999999997
 21
266.399
 31
0.0
  0
ENDBLK
  5
394
  8
_________1
  0
BLOCK
  8
_________1
  2
AIGNBL02010069
 70
     0
 10
0.0
 20
0.0
 30
0.0
  3
AIGNBL02010069
  1

  0
LINE
  5
397
  8
_________1
 62
     7
 10
71.569199999999995
 20
255.21600000000001
 30
0.0
 11
65.233999999999995
 21
255.21600000000001
 31
0.0
  0
INSERT
  5
398
  8
_________1
 62
     7
  2
AIGNBL0202006A
 10
0.0
 20
0.0
 30
0.0
  0
LINE
  5
399
  8
_________1
 62
     7
 10
75.776700000000005
 20
259.42399999999998
 30
0.0
 11
80.726699999999994
 21
264.37400000000002
 31
0.0
  0
INSERT
  5
39A
  8
_________1
 62
     7
  2
AIGNBL0202006B
 10
0.0
 20
0.0
 30
0.0
  0
ENDBLK
  5
39B
  8
_________1
  0
BLOCK
  8
_________1
  2
AIGNBL0201006C
 70
     0
 10
0.0
 20
0.0
 30
0.0
  3
AIGNBL0201006C
  1

  0
LINE
  5
39E
  8
_________1
  6
AIGENLINE001
 62
     7
 10
72.289900000000003
 20
261.899
 30
0.0
 11
84.144199999999984
 21
261.899
 31
0.0
  0
ENDBLK
  5
39F
  8
_________1
  0
BLOCK
  8
_________1
  2
AIGNBL0201006D
 70
     0
 10
0.0
 20
0.0
 30
0.0
  3
AIGNBL0201006D
  1

  0
LINE
  5
3A2
  8
_________1
  6
AIGENLINE001
 62
     7
 10
-39.345999999999997
 20
261.899
 30
0.0
 11
-11.547000000000001
 21
261.899
 31
0.0
  0
ENDBLK
  5
3A3
  8
_________1
  0
BLOCK
  8
_________1
  2
AIGNBL0201006E
 70
     0
 10
0.0
 20
0.0
 30
0.0
  3
AIGNBL0201006E
  1

  0
LINE
  5
3A6
  8
_________1
 62
     7
 10
-29.190799999999999
 20
257.19900000000001
 30
0.0
 11
-15.991899999999999
 21
257.19900000000001
 31
0.0
  0
ENDBLK
  5
3A7
  8
_________1
  0
BLOCK
  8
_________1
  2
AIGNBL0201006F
 70
     0
 10
0.0
 20
0.0
 30
0.0
  3
AIGNBL0201006F
  1

  0
LINE
  5
3AA
  8
_________1
 62
     7
 10
-36.989899999999999
 20
257.19900000000001
 30
0.0
 11
-33.990600000000001
 21
257.19900000000001
 31
0.0
  0
ENDBLK
  5
3AB
  8
_________1
  0
BLOCK
  8
_________1
  2
AIGNBL02010070
 70
     0
 10
0.0
 20
0.0
 30
0.0
  3
AIGNBL02010070
  1

  0
LINE
  5
3AE
  8
_________1
 62
     7
 10
-15.571899999999999
 20
257.209
 30
0.0
 11
-12.972200000000001
 21
257.209
 31
0.0
  0
ENDBLK
  5
3AF
  8
_________1
  0
BLOCK
  8
_________1
  2
AIGNBL02010071
 70
     0
 10
0.0
 20
0.0
 30
0.0
  3
AIGNBL02010071
  1

  0
LINE
  5
3B2
  8
_________1
 62
     7
 10
-15.891999999999999
 20
266.22500000000002
 30
0.0
 11
-15.571899999999999
 21
265.92899999999997
 31
0.0
  0
ENDBLK
  5
3B3
  8
_________1
  0
BLOCK
  8
_________1
  2
AIGNBL02010072
 70
     0
 10
0.0
 20
0.0
 30
0.0
  3
AIGNBL02010072
  1

  0
LINE
  5
3B6
  8
_________1
 62
     7
 10
-15.571899999999999
 20
266.58800000000002
 30
0.0
 11
-12.972200000000001
 21
266.58800000000002
 31
0.0
  0
ENDBLK
  5
3B7
  8
_________1
  0
BLOCK
  8
_________1
  2
AIGNBL02010073
 70
     0
 10
0.0
 20
0.0
 30
0.0
  3
AIGNBL02010073
  1

  0
LINE
  5
3BA
  8
_________1
 62
     7
 10
-36.989899999999999
 20
266.59800000000001
 30
0.0
 11
-15.991899999999999
 21
266.59800000000001
 31
0.0
  0
ENDBLK
  5
3BB
  8
_________1
  0
BLOCK
  8
_________1
  2
AIGNBL02010074
 70
     0
 10
0.0
 20
0.0
 30
0.0
  3
AIGNBL02010074
  1

  0
LINE
  5
3BE
  8
_________1
 62
     7
 10
68.252600000000001
 20
198.03800000000001
 30
0.0
 11
43.71609999999999
 21
198.03800000000001
 31
0.0
  0
ENDBLK
  5
3BF
  8
_________1
  0
BLOCK
  8
_________1
  2
AIGNBL02010075
 70
     0
 10
0.0
 20
0.0
 30
0.0
  3
AIGNBL02010075
  1

  0
LINE
  5
3C2
  8
_________1
 62
     7
 10
33.048699999999997
 20
180.80600000000001
 30
0.0
 11
32.25350000000001
 21
174.33099999999999
 31
0.0
  0
ENDBLK
  5
3C3
  8
_________1
  0
BLOCK
  8
_________1
  2
AIGNBL02010076
 70
     0
 10
0.0
 20
0.0
 30
0.0
  3
AIGNBL02010076
  1

  0
LINE
  5
3C6
  8
_________1
  6
AIGENLINE001
 62
     7
 10
33.920299999999997
 20
187.905
 30
0.0
 11
33.125100000000003
 21
181.43000000000001
 31
0.0
  0
ENDBLK
  5
3C7
  8
_________1
  0
BLOCK
  8
_________1
  2
AIGNBL02010077
 70
     0
 10
0.0
 20
0.0
 30
0.0
  3
AIGNBL02010077
  1

  0
LINE
  5
3CA
  8
_________1
 62
     7
 10
31.409800000000001
 20
187.15000000000001
 30
0.0
 11
30.8796
 21
182.833
 31
0.0
  0
ENDBLK
  5
3CB
  8
_________1
  0
BLOCK
  8
_________1
  2
AIGNBL02010078
 70
     0
 10
0.0
 20
0.0
 30
0.0
  3
AIGNBL02010078
  1

  0
LINE
  5
3CE
  8
_________1
 62
     7
 10
68.252600000000001
 20
193.239
 30
0.0
 11
43.71609999999999
 21
193.239
 31
0.0
  0
ENDBLK
  5
3CF
  8
_________1
  0
BLOCK
  8
_________1
  2
AIGNBL02010079
 70
     0
 10
0.0
 20
0.0
 30
0.0
  3
AIGNBL02010079
  1

  0
LINE
  5
3D2
  8
_________1
 62
     7
 10
36.173699999999997
 20
186.566
 30
0.0
 11
35.64350000000001
 21
182.24799999999999
 31
0.0
  0
ENDBLK
  5
3D3
  8
_________1
  0
BLOCK
  8
_________1
  2
AIGNBL0201007A
 70
     0
 10
0.0
 20
0.0
 30
0.0
  3
AIGNBL0201007A
  1

  0
LINE
  5
3D6
  8
_________1
 62
     7
 10
30.8796
 20
182.833
 30
0.0
 11
35.64350000000001
 21
182.24799999999999
 31
0.0
  0
ENDBLK
  5
3D7
  8
_________1
  0
BLOCK
  8
_________1
  2
AIGNBL0201007B
 70
     0
 10
0.0
 20
0.0
 30
0.0
  3
AIGNBL0201007B
  1

  0
LINE
  5
3DA
  8
_________1
 62
     7
 10
30.923400000000001
 20
182.77799999999999
 30
0.0
 11
35.587699999999998
 21
182.20500000000001
 31
0.0
  0
ENDBLK
  5
3DB
  8
_________1
  0
BLOCK
  8
_________1
  2
AIGNBL0201007C
 70
     0
 10
0.0
 20
0.0
 30
0.0
  3
AIGNBL0201007C
  1

  0
LINE
  5
3DE
  8
_________1
 62
     7
 10
73.851900000000001
 20
133.238
 30
0.0
 11
73.851900000000001
 21
151.58199999999999
 31
0.0
  0
ENDBLK
  5
3DF
  8
_________1
  0
BLOCK
  8
_________1
  2
AIGNBL0201007D
 70
     0
 10
0.0
 20
0.0
 30
0.0
  3
AIGNBL0201007D
  1

  0
LINE
  5
3E2
  8
_________1
 62
     7
 10
75.851799999999997
 20
165.28800000000001
 30
0.0
 11
75.851799999999997
 21
185.63900000000001
 31
0.0
  0
ENDBLK
  5
3E3
  8
_________1
  0
BLOCK
  8
_________1
  2
AIGNBL0201007E
 70
     0
 10
0.0
 20
0.0
 30
0.0
  3
AIGNBL0201007E
  1

  0
LINE
  5
3E6
  8
_________1
 62
     7
 10
75.851799999999997
 20
159.10599999999999
 30
0.0
 11
75.851799999999997
 21
157.28100000000001
 31
0.0
  0
ENDBLK
  5
3E7
  8
_________1
  0
BLOCK
  8
_________1
  2
AIGNBL0201007F
 70
     0
 10
0.0
 20
0.0
 30
0.0
  3
AIGNBL0201007F
  1

  0
LINE
  5
3EA
  8
_________1
 62
     7
 10
80.651600000000002
 20
162.678
 30
0.0
 11
80.651600000000002
 21
185.63900000000001
 31
0.0
  0
ENDBLK
  5
3EB
  8
_________1
  0
BLOCK
  8
_________1
  2
AIGNBL02010080
 70
     0
 10
0.0
 20
0.0
 30
0.0
  3
AIGNBL02010080
  1

  0
LINE
  5
3EE
  8
_________1
 62
     7
 10
80.651600000000002
 20
159.38800000000001
 30
0.0
 11
80.651600000000002
 21
161.41800000000001
 31
0.0
  0
ENDBLK
  5
3EF
  8
_________1
  0
BLOCK
  8
_________1
  2
AIGNBL02010081
 70
     0
 10
0.0
 20
0.0
 30
0.0
  3
AIGNBL02010081
  1

  0
LINE
  5
3F2
  8
_________1
 62
     7
 10
80.651600000000002
 20
159.33799999999999
 30
0.0
 11
80.651600000000002
 21
157.28100000000001
 31
0.0
  0
ENDBLK
  5
3F3
  8
_________1
  0
BLOCK
  8
_________1
  2
AIGNBL02010082
 70
     0
 10
0.0
 20
0.0
 30
0.0
  3
AIGNBL02010082
  1

  0
LINE
  5
3F6
  8
_________1
 62
     7
 10
82.651499999999999
 20
133.238
 30
0.0
 11
82.651499999999999
 21
151.58199999999999
 31
0.0
  0
ENDBLK
  5
3F7
  8
_________1
  0
BLOCK
  8
_________1
  2
AIGNBL02010083
 70
     0
 10
0.0
 20
0.0
 30
0.0
  3
AIGNBL02010083
  1

  0
LINE
  5
3FA
  8
_________1
 62
     7
 10
82.651499999999999
 20
133.238
 30
0.0
 11
73.851900000000001
 21
133.238
 31
0.0
  0
ENDBLK
  5
3FB
  8
_________1
  0
BLOCK
  8
_________1
  2
AIGNBL02010084
 70
     0
 10
0.0
 20
0.0
 30
0.0
  3
AIGNBL02010084
  1

  0
LINE
  5
3FE
  8
_________1
 62
     7
 10
-15.891999999999999
 20
148.91200000000001
 30
0.0
 11
-15.571899999999999
 21
149.208
 31
0.0
  0
ENDBLK
  5
3FF
  8
_________1
  0
BLOCK
  8
_________1
  2
AIGNBL02010085
 70
     0
 10
0.0
 20
0.0
 30
0.0
  3
AIGNBL02010085
  1

  0
LINE
  5
402
  8
_________1
 62
     7
 10
-37.290300000000002
 20
147.57400000000001
 30
0.0
 11
-37.290300000000002
 21
138.65299999999999
 31
0.0
  0
ENDBLK
  5
403
  8
_________1
  0
BLOCK
  8
_________1
  2
AIGNBL02010086
 70
     0
 10
0.0
 20
0.0
 30
0.0
  3
AIGNBL02010086
  1

  0
LINE
  5
406
  8
_________1
 62
     7
 10
-12.7721
 20
147.691
 30
0.0
 11
-12.7721
 21
138.65299999999999
 31
0.0
  0
ENDBLK
  5
407
  8
_________1
  0
BLOCK
  8
_________1
  2
AIGNBL02010087
 70
     0
 10
0.0
 20
0.0
 30
0.0
  3
AIGNBL02010087
  1

  0
LINE
  5
40A
  8
_________1
 62
     7
 10
-12.972200000000001
 20
157.94900000000001
 30
0.0
 11
-12.972200000000001
 21
148.54900000000001
 31
0.0
  0
ENDBLK
  5
40B
  8
_________1
  0
BLOCK
  8
_________1
  2
AIGNBL02010088
 70
     0
 10
0.0
 20
0.0
 30
0.0
  3
AIGNBL02010088
  1

  0
LINE
  5
40E
  8
_________1
 62
     7
 10
-15.891999999999999
 20
157.83799999999999
 30
0.0
 11
-15.891999999999999
 21
148.63900000000001
 31
0.0
  0
ENDBLK
  5
40F
  8
_________1
  0
BLOCK
  8
_________1
  2
AIGNBL02010089
 70
     0
 10
0.0
 20
0.0
 30
0.0
  3
AIGNBL02010089
  1

  0
LINE
  5
412
  8
_________1
 62
     7
 10
-15.991899999999999
 20
157.93799999999999
 30
0.0
 11
-15.991899999999999
 21
148.53800000000001
 31
0.0
  0
ENDBLK
  5
413
  8
_________1
  0
BLOCK
  8
_________1
  2
AIGNBL0201008A
 70
     0
 10
0.0
 20
0.0
 30
0.0
  3
AIGNBL0201008A
  1

  0
LINE
  5
416
  8
_________1
 62
     7
 10
19.765699999999999
 20
195.828
 30
0.0
 11
19.173100000000002
 21
198.03999999999999
 31
0.0
  0
LINE
  5
417
  8
_________1
 62
     7
 10
19.173100000000002
 20
198.03999999999999
 30
0.0
 11
18.5806
 21
195.828
 31
0.0
  0
LINE
  5
418
  8
_________1
 62
     7
 10
18.5806
 20
195.828
 30
0.0
 11
19.765699999999999
 21
195.828
 31
0.0
  0
LINE
  5
419
  8
_________1
 62
     7
 10
18.594999999999999
 20
135.44900000000001
 30
0.0
 11
19.1876
 21
133.23699999999999
 31
0.0
  0
LINE
  5
41A
  8
_________1
 62
     7
 10
19.1876
 20
133.23699999999999
 30
0.0
 11
19.780100000000001
 21
135.44900000000001
 31
0.0
  0
LINE
  5
41B
  8
_________1
 62
     7
 10
19.780100000000001
 20
135.44900000000001
 30
0.0
 11
18.594999999999999
 21
135.44900000000001
 31
0.0
  0
LINE
  5
41C
  8
_________1
 62
     7
 10
19.180299999999999
 20
198.03899999999999
 30
0.0
 11
19.180299999999999
 21
133.23699999999999
 31
0.0
  0
ENDBLK
  5
41D
  8
_________1
  0
BLOCK
  8
_________1
  2
AIGNBL0201008B
 70
     0
 10
0.0
 20
0.0
 30
0.0
  3
AIGNBL0201008B
  1

  0
LINE
  5
420
  8
_________1
 62
     7
 10
27.545100000000001
 20
180.28
 30
0.0
 11
26.952500000000001
 21
182.49199999999999
 31
0.0
  0
LINE
  5
421
  8
_________1
 62
     7
 10
26.952500000000001
 20
182.49199999999999
 30
0.0
 11
26.359999999999999
 21
180.28
 31
0.0
  0
LINE
  5
422
  8
_________1
 62
     7
 10
26.359999999999999
 20
180.28
 30
0.0
 11
27.545100000000001
 21
180.28
 31
0.0
  0
LINE
  5
423
  8
_________1
 62
     7
 10
26.374400000000001
 20
135.44900000000001
 30
0.0
 11
26.966999999999999
 21
133.23699999999999
 31
0.0
  0
LINE
  5
424
  8
_________1
 62
     7
 10
26.966999999999999
 20
133.23699999999999
 30
0.0
 11
27.5596
 21
135.44900000000001
 31
0.0
  0
LINE
  5
425
  8
_________1
 62
     7
 10
27.5596
 20
135.44900000000001
 30
0.0
 11
26.374400000000001
 21
135.44900000000001
 31
0.0
  0
LINE
  5
426
  8
_________1
 62
     7
 10
26.959800000000001
 20
182.49199999999999
 30
0.0
 11
26.959800000000001
 21
133.23699999999999
 31
0.0
  0
ENDBLK
  5
427
  8
_________1
  0
BLOCK
  8
_________1
  2
AIGNBL0201008C
 70
     0
 10
0.0
 20
0.0
 30
0.0
  3
AIGNBL0201008C
  1

  0
LINE
  5
42A
  8
_________1
 62
     7
 10
-43.072600000000001
 20
150.75
 30
0.0
 11
-43.665100000000002
 21
148.53800000000001
 31
0.0
  0
LINE
  5
42B
  8
_________1
 62
     7
 10
-43.665100000000002
 20
148.53800000000001
 30
0.0
 11
-44.257699999999993
 21
150.75
 31
0.0
  0
LINE
  5
42C
  8
_________1
 62
     7
 10
-44.257699999999993
 20
150.75
 30
0.0
 11
-43.072600000000001
 21
150.75
 31
0.0
  0
LINE
  5
42D
  8
_________1
 62
     7
 10
-44.243200000000002
 20
155.726
 30
0.0
 11
-43.650700000000001
 21
157.93799999999999
 31
0.0
  0
LINE
  5
42E
  8
_________1
 62
     7
 10
-43.650700000000001
 20
157.93799999999999
 30
0.0
 11
-43.058100000000003
 21
155.726
 31
0.0
  0
LINE
  5
42F
  8
_________1
 62
     7
 10
-43.058100000000003
 20
155.726
 30
0.0
 11
-44.243200000000002
 21
155.726
 31
0.0
  0
LINE
  5
430
  8
_________1
 62
     7
 10
-43.658200000000001
 20
148.53800000000001
 30
0.0
 11
-43.658200000000001
 21
157.93700000000001
 31
0.0
  0
ENDBLK
  5
431
  8
_________1
  0
BLOCK
  8
_________1
  2
AIGNBL0201008D
 70
     0
 10
0.0
 20
0.0
 30
0.0
  3
AIGNBL0201008D
  1

  0
LINE
  5
434
  8
_________1
 62
     7
 10
3.9746299999999999
 20
168.5259999999999
 30
0.0
 11
3.3820699999999988
 21
170.738
 31
0.0
  0
LINE
  5
435
  8
_________1
 62
     7
 10
3.3820699999999988
 20
170.738
 30
0.0
 11
2.789509999999999
 21
168.5259999999999
 31
0.0
  0
LINE
  5
436
  8
_________1
 62
     7
 10
2.789509999999999
 20
168.5259999999999
 30
0.0
 11
3.9746299999999999
 21
168.5259999999999
 31
0.0
  0
LINE
  5
437
  8
_________1
 62
     7
 10
3.38931
 20
133.23699999999999
 30
0.0
 11
3.38931
 21
170.73699999999999
 31
0.0
  0
ENDBLK
  5
438
  8
_________1
  0
BLOCK
  8
_________1
  2
AIGNBL0201008E
 70
     0
 10
0.0
 20
0.0
 30
0.0
  3
AIGNBL0201008E
  1

  0
LINE
  5
43B
  8
_________1
 62
     7
 10
-4.3766800000000003
 20
135.44900000000001
 30
0.0
 11
-3.7841199999999988
 21
133.23699999999999
 31
0.0
  0
LINE
  5
43C
  8
_________1
 62
     7
 10
-3.7841199999999988
 20
133.23699999999999
 30
0.0
 11
-3.1915599999999991
 21
135.44900000000001
 31
0.0
  0
LINE
  5
43D
  8
_________1
 62
     7
 10
-3.1915599999999991
 20
135.44900000000001
 30
0.0
 11
-4.3766800000000003
 21
135.44900000000001
 31
0.0
  0
LINE
  5
43E
  8
_________1
 62
     7
 10
-3.2060299999999988
 20
151.02600000000001
 30
0.0
 11
-3.7985899999999999
 21
153.238
 31
0.0
  0
LINE
  5
43F
  8
_________1
 62
     7
 10
-3.7985899999999999
 20
153.238
 30
0.0
 11
-4.3911499999999988
 21
151.02600000000001
 31
0.0
  0
LINE
  5
440
  8
_________1
 62
     7
 10
-4.3911499999999988
 20
151.02600000000001
 30
0.0
 11
-3.2060299999999988
 21
151.02600000000001
 31
0.0
  0
LINE
  5
441
  8
_________1
 62
     7
 10
-3.7913499999999991
 20
133.23699999999999
 30
0.0
 11
-3.7913499999999991
 21
153.238
 31
0.0
  0
ENDBLK
  5
442
  8
_________1
  0
BLOCK
  8
_________1
  2
AIGNBL0201008F
 70
     0
 10
0.0
 20
0.0
 30
0.0
  3
AIGNBL0201008F
  1

  0
LINE
  5
445
  8
_________1
 62
     7
 10
2.8039800000000001
 20
135.44900000000001
 30
0.0
 11
3.3965399999999999
 21
133.23699999999999
 31
0.0
  0
LINE
  5
446
  8
_________1
 62
     7
 10
3.3965399999999999
 20
133.23699999999999
 30
0.0
 11
3.9891000000000001
 21
135.44900000000001
 31
0.0
  0
LINE
  5
447
  8
_________1
 62
     7
 10
3.9891000000000001
 20
135.44900000000001
 30
0.0
 11
2.8039800000000001
 21
135.44900000000001
 31
0.0
  0
ENDBLK
  5
448
  8
_________1
  0
BLOCK
  8
_________1
  2
AIGNBL02010090
 70
     0
 10
0.0
 20
0.0
 30
0.0
  3
AIGNBL02010090
  1

  0
LINE
  5
44B
  8
_________1
 62
     7
 10
76.062700000000007
 20
137.47900000000001
 30
0.0
 11
73.850899999999996
 21
136.886
 31
0.0
  0
LINE
  5
44C
  8
_________1
 62
     7
 10
73.850899999999996
 20
136.886
 30
0.0
 11
76.062700000000007
 21
136.29400000000001
 31
0.0
  0
LINE
  5
44D
  8
_________1
 62
     7
 10
76.062700000000007
 20
136.29400000000001
 30
0.0
 11
76.062700000000007
 21
137.47900000000001
 31
0.0
  0
LINE
  5
44E
  8
_________1
 62
     7
 10
80.440700000000007
 20
136.30799999999999
 30
0.0
 11
82.652499999999989
 21
136.90100000000001
 31
0.0
  0
LINE
  5
44F
  8
_________1
 62
     7
 10
82.652499999999989
 20
136.90100000000001
 30
0.0
 11
80.440700000000007
 21
137.49299999999999
 31
0.0
  0
LINE
  5
450
  8
_________1
 62
     7
 10
80.440700000000007
 20
137.49299999999999
 30
0.0
 11
80.440700000000007
 21
136.30799999999999
 31
0.0
  0
LINE
  5
451
  8
_________1
 62
     7
 10
73.851900000000001
 20
136.893
 30
0.0
 11
82.651499999999999
 21
136.893
 31
0.0
  0
ENDBLK
  5
452
  8
_________1
  0
BLOCK
  8
_________1
  2
AIGNBL02010091
 70
     0
 10
0.0
 20
0.0
 30
0.0
  3
AIGNBL02010091
  1

  0
LINE
  5
455
  8
_________1
 62
     7
 10
73.641400000000004
 20
178.60900000000001
 30
0.0
 11
75.853200000000001
 21
179.20099999999999
 31
0.0
  0
LINE
  5
456
  8
_________1
 62
     7
 10
75.853200000000001
 20
179.20099999999999
 30
0.0
 11
73.641400000000004
 21
179.79400000000001
 31
0.0
  0
LINE
  5
457
  8
_________1
 62
     7
 10
73.641400000000004
 20
179.79400000000001
 30
0.0
 11
73.641400000000004
 21
178.60900000000001
 31
0.0
  0
LINE
  5
458
  8
_________1
 62
     7
 10
70.411699999999996
 20
179.19399999999999
 30
0.0
 11
75.851799999999997
 21
179.19399999999999
 31
0.0
  0
ENDBLK
  5
459
  8
_________1
  0
BLOCK
  8
_________1
  2
AIGNBL02010092
 70
     0
 10
0.0
 20
0.0
 30
0.0
  3
AIGNBL02010092
  1

  0
LINE
  5
45C
  8
_________1
 62
     7
 10
82.861999999999995
 20
179.779
 30
0.0
 11
80.650199999999998
 21
179.18700000000001
 31
0.0
  0
LINE
  5
45D
  8
_________1
 62
     7
 10
80.650199999999998
 20
179.18700000000001
 30
0.0
 11
82.861999999999995
 21
178.59399999999999
 31
0.0
  0
LINE
  5
45E
  8
_________1
 62
     7
 10
82.861999999999995
 20
178.59399999999999
 30
0.0
 11
82.861999999999995
 21
179.779
 31
0.0
  0
LINE
  5
45F
  8
_________1
 62
     7
 10
80.651600000000002
 20
179.19399999999999
 30
0.0
 11
88.677700000000002
 21
179.19399999999999
 31
0.0
  0
ENDBLK
  5
460
  8
_________1
  0
BLOCK
  8
_________1
  2
AIGNBL02010093
 70
     0
 10
0.0
 20
0.0
 30
0.0
  3
AIGNBL02010093
  1

  0
LINE
  5
463
  8
_________1
 62
     7
 10
35.466099999999997
 20
205.71000000000001
 30
0.0
 11
33.254300000000001
 21
205.11799999999999
 31
0.0
  0
LINE
  5
464
  8
_________1
 62
     7
 10
33.254300000000001
 20
205.11799999999999
 30
0.0
 11
35.466099999999997
 21
204.52500000000001
 31
0.0
  0
LINE
  5
465
  8
_________1
 62
     7
 10
35.466099999999997
 20
204.52500000000001
 30
0.0
 11
35.466099999999997
 21
205.71000000000001
 31
0.0
  0
LINE
  5
466
  8
_________1
 62
     7
 10
76.041300000000007
 20
204.53999999999999
 30
0.0
 11
78.253100000000003
 21
205.13200000000001
 31
0.0
  0
LINE
  5
467
  8
_________1
 62
     7
 10
78.253100000000003
 20
205.13200000000001
 30
0.0
 11
76.041300000000007
 21
205.72499999999999
 31
0.0
  0
LINE
  5
468
  8
_________1
 62
     7
 10
76.041300000000007
 20
205.72499999999999
 30
0.0
 11
76.041300000000007
 21
204.53999999999999
 31
0.0
  0
LINE
  5
469
  8
_________1
 62
     7
 10
33.254300000000001
 20
205.125
 30
0.0
 11
78.253100000000003
 21
205.125
 31
0.0
  0
ENDBLK
  5
46A
  8
_________1
  0
BLOCK
  8
_________1
  2
AIGNBL02010094
 70
     0
 10
0.0
 20
0.0
 30
0.0
  3
AIGNBL02010094
  1

  0
LINE
  5
46D
  8
_________1
 62
     7
 10
-29.379999999999999
 20
180.0259999999999
 30
0.0
 11
-31.591699999999999
 21
179.43299999999999
 31
0.0
  0
LINE
  5
46E
  8
_________1
 62
     7
 10
-31.591699999999999
 20
179.43299999999999
 30
0.0
 11
-29.379999999999999
 21
178.84100000000001
 31
0.0
  0
LINE
  5
46F
  8
_________1
 62
     7
 10
-29.379999999999999
 20
178.84100000000001
 30
0.0
 11
-29.379999999999999
 21
180.0259999999999
 31
0.0
  0
LINE
  5
470
  8
_________1
 62
     7
 10
-8.3705999999999996
 20
178.85499999999999
 30
0.0
 11
-6.1588399999999996
 21
179.44800000000001
 31
0.0
  0
LINE
  5
471
  8
_________1
 62
     7
 10
-6.1588399999999996
 20
179.44800000000001
 30
0.0
 11
-8.3705999999999996
 21
180.041
 31
0.0
  0
LINE
  5
472
  8
_________1
 62
     7
 10
-8.3705999999999996
 20
180.041
 30
0.0
 11
-8.3705999999999996
 21
178.85499999999999
 31
0.0
  0
LINE
  5
473
  8
_________1
 62
     7
 10
-31.591699999999999
 20
179.441
 30
0.0
 11
-6.1588399999999996
 21
179.441
 31
0.0
  0
ENDBLK
  5
474
  8
_________1
  0
BLOCK
  8
_________1
  2
AIGNBL02010095
 70
     0
 10
0.0
 20
0.0
 30
0.0
  3
AIGNBL02010095
  1

  0
LINE
  5
477
  8
_________1
 62
     7
 10
-15.891999999999999
 20
157.565
 30
0.0
 11
-15.571899999999999
 21
157.268
 31
0.0
  0
ENDBLK
  5
478
  8
_________1
  0
BLOCK
  8
_________1
  2
AIGNBL02010096
 70
     0
 10
0.0
 20
0.0
 30
0.0
  3
AIGNBL02010096
  1

  0
LINE
  5
47B
  8
_________1
 62
     7
 10
78.251699999999985
 20
188.21799999999999
 30
0.0
 11
78.251699999999985
 21
205.82499999999999
 31
0.0
  0
ENDBLK
  5
47C
  8
_________1
  0
BLOCK
  8
_________1
  2
AIGNBL02010097
 70
     0
 10
0.0
 20
0.0
 30
0.0
  3
AIGNBL02010097
  1

  0
LINE
  5
47F
  8
_________1
  6
AIGENLINE001
 62
     7
 10
78.251699999999985
 20
256.33600000000001
 30
0.0
 11
78.251699999999985
 21
267.34399999999999
 31
0.0
  0
ENDBLK
  5
480
  8
_________1
  0
BLOCK
  8
_________1
  2
AIGNBL02010098
 70
     0
 10
0.0
 20
0.0
 30
0.0
  3
AIGNBL02010098
  1

  0
LINE
  5
483
  8
_________1
  6
AIGENLINE001
 62
     7
 10
78.251699999999985
 20
114.26900000000001
 30
0.0
 11
78.251699999999985
 21
136.03399999999999
 31
0.0
  0
LINE
  5
484
  8
_________1
  6
AIGENLINE001
 62
     7
 10
78.251699999999985
 20
141.63300000000001
 30
0.0
 11
78.251699999999985
 21
187.518
 31
0.0
  0
ENDBLK
  5
485
  8
_________1
  0
BLOCK
  8
_________1
  2
AIGNBL02010099
 70
     0
 10
0.0
 20
0.0
 30
0.0
  3
AIGNBL02010099
  1

  0
LINE
  5
488
  8
_________1
  6
AIGENLINE001
 62
     7
 10
-31.6906
 20
31.195900000000002
 30
0.0
 11
-31.6906
 21
153.434
 31
0.0
  0
ENDBLK
  5
489
  8
_________1
  0
BLOCK
  8
_________1
  2
AIGNBL0201009A
 70
     0
 10
0.0
 20
0.0
 30
0.0
  3
AIGNBL0201009A
  1

  0
LINE
  5
48C
  8
_________1
 62
     7
 10
-27.2912
 20
133.238
 30
0.0
 11
-27.2912
 21
148.53800000000001
 31
0.0
  0
ENDBLK
  5
48D
  8
_________1
  0
BLOCK
  8
_________1
  2
AIGNBL0201009B
 70
     0
 10
0.0
 20
0.0
 30
0.0
  3
AIGNBL0201009B
  1

  0
LINE
  5
490
  8
_________1
  6
AIGENLINE001
 62
     7
 10
-31.590699999999998
 20
213.40899999999999
 30
0.0
 11
-31.590699999999998
 21
268.88600000000002
 31
0.0
  0
ENDBLK
  5
491
  8
_________1
  0
BLOCK
  8
_________1
  2
AIGNBL0201009C
 70
     0
 10
0.0
 20
0.0
 30
0.0
  3
AIGNBL0201009C
  1

  0
LINE
  5
494
  8
_________1
 62
     7
 10
33.255400000000002
 20
186.535
 30
0.0
 11
33.255400000000002
 21
205.82499999999999
 31
0.0
  0
ENDBLK
  5
495
  8
_________1
  0
BLOCK
  8
_________1
  2
AIGNBL0201009D
 70
     0
 10
0.0
 20
0.0
 30
0.0
  3
AIGNBL0201009D
  1

  0
LINE
  5
498
  8
_________1
 62
     7
 10
33.255400000000002
 20
174.196
 30
0.0
 11
33.255400000000002
 21
181.80500000000001
 31
0.0
  0
ENDBLK
  5
499
  8
_________1
  0
BLOCK
  8
_________1
  2
AIGNBL0201009E
 70
     0
 10
0.0
 20
0.0
 30
0.0
  3
AIGNBL0201009E
  1

  0
LINE
  5
49C
  8
_________1
 62
     7
 10
-6.1588399999999996
 20
168.79499999999999
 30
0.0
 11
-6.1588399999999996
 21
180.14099999999999
 31
0.0
  0
ENDBLK
  5
49D
  8
_________1
  0
BLOCK
  8
_________1
  2
AIGNBL0201009F
 70
     0
 10
0.0
 20
0.0
 30
0.0
  3
AIGNBL0201009F
  1

  0
LINE
  5
4A0
  8
_________1
  6
AIGENLINE001
 62
     7
 10
-31.590699999999998
 20
156.69200000000001
 30
0.0
 11
-31.590699999999998
 21
199.20400000000001
 31
0.0
  0
ENDBLK
  5
4A1
  8
_________1
  0
BLOCK
  8
_________1
  2
AIGNBL020100A0
 70
     0
 10
0.0
 20
0.0
 30
0.0
  3
AIGNBL020100A0
  1

  0
LINE
  5
4A4
  8
_________1
 62
     7
 10
-29.190799999999999
 20
159.38800000000001
 30
0.0
 11
-29.190799999999999
 21
195.63900000000001
 31
0.0
  0
ENDBLK
  5
4A5
  8
_________1
  0
BLOCK
  8
_________1
  2
AIGNBL020100A1
 70
     0
 10
0.0
 20
0.0
 30
0.0
  3
AIGNBL020100A1
  1

  0
LINE
  5
4A8
  8
_________1
 62
     7
 10
-29.190799999999999
 20
159.33799999999999
 30
0.0
 11
-29.190799999999999
 21
157.93799999999999
 31
0.0
  0
ENDBLK
  5
4A9
  8
_________1
  0
BLOCK
  8
_________1
  2
AIGNBL020100A2
 70
     0
 10
0.0
 20
0.0
 30
0.0
  3
AIGNBL020100A2
  1

  0
LINE
  5
4AC
  8
_________1
 62
     7
 10
-33.990600000000001
 20
159.38800000000001
 30
0.0
 11
-29.190799999999999
 21
159.38800000000001
 31
0.0
  0
ENDBLK
  5
4AD
  8
_________1
  0
BLOCK
  8
_________1
  2
AIGNBL020100A3
 70
     0
 10
0.0
 20
0.0
 30
0.0
  3
AIGNBL020100A3
  1

  0
LINE
  5
4B0
  8
_________1
 62
     7
 10
-33.990600000000001
 20
159.33799999999999
 30
0.0
 11
-29.190799999999999
 21
159.33799999999999
 31
0.0
  0
ENDBLK
  5
4B1
  8
_________1
  0
BLOCK
  8
_________1
  2
AIGNBL020100A4
 70
     0
 10
0.0
 20
0.0
 30
0.0
  3
AIGNBL020100A4
  1

  0
LINE
  5
4B4
  8
_________1
 62
     7
 10
-29.7806
 20
159.38800000000001
 30
0.0
 11
-29.7806
 21
159.33799999999999
 31
0.0
  0
ENDBLK
  5
4B5
  8
_________1
  0
BLOCK
  8
_________1
  2
AIGNBL020100A5
 70
     0
 10
0.0
 20
0.0
 30
0.0
  3
AIGNBL020100A5
  1

  0
LINE
  5
4B8
  8
_________1
 62
     7
 10
-35.078499999999998
 20
139.94499999999999
 30
0.0
 11
-37.290300000000002
 21
139.35300000000001
 31
0.0
  0
LINE
  5
4B9
  8
_________1
 62
     7
 10
-37.290300000000002
 20
139.35300000000001
 30
0.0
 11
-35.078499999999998
 21
138.75999999999999
 31
0.0
  0
LINE
  5
4BA
  8
_________1
 62
     7
 10
-35.078499999999998
 20
138.75999999999999
 30
0.0
 11
-35.078499999999998
 21
139.94499999999999
 31
0.0
  0
LINE
  5
4BB
  8
_________1
 62
     7
 10
-29.479900000000001
 20
139.93799999999999
 30
0.0
 11
-31.691600000000001
 21
139.346
 31
0.0
  0
LINE
  5
4BC
  8
_________1
 62
     7
 10
-31.691600000000001
 20
139.346
 30
0.0
 11
-29.479900000000001
 21
138.75299999999999
 31
0.0
  0
LINE
  5
4BD
  8
_________1
 62
     7
 10
-29.479900000000001
 20
138.75299999999999
 30
0.0
 11
-29.479900000000001
 21
139.93799999999999
 31
0.0
  0
LINE
  5
4BE
  8
_________1
 62
     7
 10
-33.903399999999998
 20
138.768
 30
0.0
 11
-31.691600000000001
 21
139.36000000000001
 31
0.0
  0
LINE
  5
4BF
  8
_________1
 62
     7
 10
-31.691600000000001
 20
139.36000000000001
 30
0.0
 11
-33.903399999999998
 21
139.953
 31
0.0
  0
LINE
  5
4C0
  8
_________1
 62
     7
 10
-33.903399999999998
 20
139.953
 30
0.0
 11
-33.903399999999998
 21
138.768
 31
0.0
  0
LINE
  5
4C1
  8
_________1
 62
     7
 10
-14.982799999999999
 20
138.768
 30
0.0
 11
-12.771000000000001
 21
139.36000000000001
 31
0.0
  0
LINE
  5
4C2
  8
_________1
 62
     7
 10
-12.771000000000001
 20
139.36000000000001
 30
0.0
 11
-14.982799999999999
 21
139.953
 31
0.0
  0
LINE
  5
4C3
  8
_________1
 62
     7
 10
-14.982799999999999
 20
139.953
 30
0.0
 11
-14.982799999999999
 21
138.768
 31
0.0
  0
LINE
  5
4C4
  8
_________1
 62
     7
 10
-41.909499999999987
 20
139.35300000000001
 30
0.0
 11
-12.7704
 21
139.35300000000001
 31
0.0
  0
ENDBLK
  5
4C5
  8
_________1
  0
BLOCK
  8
_________1
  2
AIGNBL020100A6
 70
     0
 10
0.0
 20
0.0
 30
0.0
  3
AIGNBL020100A6
  1

  0
LINE
  5
4C8
  8
_________1
 62
     7
 10
-26.591100000000001
 20
133.238
 30
0.0
 11
4.0893499999999987
 21
133.238
 31
0.0
  0
ENDBLK
  5
4C9
  8
_________1
  0
BLOCK
  8
_________1
  2
AIGNBL020100A7
 70
     0
 10
0.0
 20
0.0
 30
0.0
  3
AIGNBL020100A7
  1

  0
LINE
  5
4CC
  8
_________1
  6
AIGENLINE001
 62
     7
 10
71.587800000000001
 20
153.238
 30
0.0
 11
84.498699999999999
 21
153.238
 31
0.0
  0
ENDBLK
  5
4CD
  8
_________1
  0
BLOCK
  8
_________1
  2
AIGNBL020100A8
 70
     0
 10
0.0
 20
0.0
 30
0.0
  3
AIGNBL020100A8
  1

  0
LINE
  5
4D0
  8
_________1
 62
     7
 10
-29.190799999999999
 20
157.93799999999999
 30
0.0
 11
-15.991899999999999
 21
157.93799999999999
 31
0.0
  0
ENDBLK
  5
4D1
  8
_________1
  0
BLOCK
  8
_________1
  2
AIGNBL020100A9
 70
     0
 10
0.0
 20
0.0
 30
0.0
  3
AIGNBL020100A9
  1

  0
LINE
  5
4D4
  8
_________1
 62
     7
 10
-37.089799999999997
 20
157.93799999999999
 30
0.0
 11
-33.990600000000001
 21
157.93799999999999
 31
0.0
  0
ENDBLK
  5
4D5
  8
_________1
  0
BLOCK
  8
_________1
  2
AIGNBL020100AA
 70
     0
 10
0.0
 20
0.0
 30
0.0
  3
AIGNBL020100AA
  1

  0
LINE
  5
4D8
  8
_________1
 62
     7
 10
-33.400399999999998
 20
159.38800000000001
 30
0.0
 11
-33.400399999999998
 21
159.33799999999999
 31
0.0
  0
ENDBLK
  5
4D9
  8
_________1
  0
BLOCK
  8
_________1
  2
AIGNBL020100AB
 70
     0
 10
0.0
 20
0.0
 30
0.0
  3
AIGNBL020100AB
  1

  0
LINE
  5
4DC
  8
_________1
 62
     7
 10
-33.990600000000001
 20
159.38800000000001
 30
0.0
 11
-33.990600000000001
 21
195.63900000000001
 31
0.0
  0
ENDBLK
  5
4DD
  8
_________1
  0
BLOCK
  8
_________1
  2
AIGNBL020100AC
 70
     0
 10
0.0
 20
0.0
 30
0.0
  3
AIGNBL020100AC
  1

  0
LINE
  5
4E0
  8
_________1
 62
     7
 10
-33.990600000000001
 20
159.33799999999999
 30
0.0
 11
-33.990600000000001
 21
157.93799999999999
 31
0.0
  0
ENDBLK
  5
4E1
  8
_________1
  0
BLOCK
  8
_________1
  2
AIGNBL020100AD
 70
     0
 10
0.0
 20
0.0
 30
0.0
  3
AIGNBL020100AD
  1

  0
LINE
  5
4E4
  8
_________1
 62
     7
 10
-36.090400000000002
 20
133.238
 30
0.0
 11
-36.090400000000002
 21
148.53800000000001
 31
0.0
  0
ENDBLK
  5
4E5
  8
_________1
  0
BLOCK
  8
_________1
  2
AIGNBL020100AE
 70
     0
 10
0.0
 20
0.0
 30
0.0
  3
AIGNBL020100AE
  1

  0
LINE
  5
4E8
  8
_________1
 62
     7
 10
-37.089799999999997
 20
148.53800000000001
 30
0.0
 11
-37.089799999999997
 21
157.93799999999999
 31
0.0
  0
ENDBLK
  5
4E9
  8
_________1
  0
BLOCK
  8
_________1
  2
AIGNBL020100AF
 70
     0
 10
0.0
 20
0.0
 30
0.0
  3
AIGNBL020100AF
  1

  0
LINE
  5
4EC
  8
_________1
 62
     7
 10
-37.290300000000002
 20
157.738
 30
0.0
 11
-37.290300000000002
 21
148.738
 31
0.0
  0
ENDBLK
  5
4ED
  8
_________1
  0
BLOCK
  8
_________1
  2
AIGNBL020100B0
 70
     0
 10
0.0
 20
0.0
 30
0.0
  3
AIGNBL020100B0
  1

  0
LINE
  5
4F0
  8
_________1
 62
     7
 10
-27.2912
 20
148.53800000000001
 30
0.0
 11
-15.991899999999999
 21
148.53800000000001
 31
0.0
  0
ENDBLK
  5
4F1
  8
_________1
  0
BLOCK
  8
_________1
  2
AIGNBL020100B1
 70
     0
 10
0.0
 20
0.0
 30
0.0
  3
AIGNBL020100B1
  1

  0
LINE
  5
4F4
  8
_________1
 62
     7
 10
-37.089799999999997
 20
148.53800000000001
 30
0.0
 11
-36.090400000000002
 21
148.53800000000001
 31
0.0
  0
ENDBLK
  5
4F5
  8
_________1
  0
BLOCK
  8
_________1
  2
AIGNBL020100B2
 70
     0
 10
0.0
 20
0.0
 30
0.0
  3
AIGNBL020100B2
  1

  0
LINE
  5
4F8
  8
_________1
 62
     7
 10
-36.090400000000002
 20
133.238
 30
0.0
 11
-27.2912
 21
133.238
 31
0.0
  0
ENDBLK
  5
4F9
  8
_________1
  0
BLOCK
  8
_________2
  2
AIGNBL03010002
 70
     0
 10
0.0
 20
0.0
 30
0.0
  3
AIGNBL03010002
  1

  0
LINE
  5
4FC
  8
_________2
 62
     7
 10
186.649
 20
51.052199999999999
 30
0.0
 11
184.46299999999999
 21
51.052199999999999
 31
0.0
  0
LINE
  5
4FD
  8
_________2
 62
     7
 10
187.142
 20
51.052199999999999
 30
0.0
 11
186.88900000000001
 21
51.052199999999999
 31
0.0
  0
LINE
  5
4FE
  8
_________2
 62
     7
 10
187.63399999999999
 20
51.052199999999999
 30
0.0
 11
190.559
 21
51.052199999999999
 31
0.0
  0
LINE
  5
4FF
  8
_________2
 62
     7
 10
187.142
 20
51.052199999999999
 30
0.0
 11
187.39400000000001
 21
51.052199999999999
 31
0.0
  0
LINE
  5
500
  8
_________2
 62
     7
 10
180.745
 20
51.052199999999999
 30
0.0
 11
178.55799999999999
 21
51.052199999999999
 31
0.0
  0
LINE
  5
501
  8
_________2
 62
     7
 10
181.23699999999999
 20
51.052199999999999
 30
0.0
 11
180.98599999999999
 21
51.052199999999999
 31
0.0
  0
LINE
  5
502
  8
_________2
 62
     7
 10
181.23699999999999
 20
51.544800000000002
 30
0.0
 11
181.23699999999999
 21
53.7318
 31
0.0
  0
LINE
  5
503
  8
_________2
 62
     7
 10
181.23699999999999
 20
51.052199999999999
 30
0.0
 11
181.23699999999999
 21
51.304299999999998
 31
0.0
  0
LINE
  5
504
  8
_________2
 62
     7
 10
181.72999999999999
 20
51.052199999999999
 30
0.0
 11
183.917
 21
51.052199999999999
 31
0.0
  0
LINE
  5
505
  8
_________2
 62
     7
 10
181.23699999999999
 20
51.052199999999999
 30
0.0
 11
181.489
 21
51.052199999999999
 31
0.0
  0
LINE
  5
506
  8
_________2
 62
     7
 10
181.23699999999999
 20
50.560200000000002
 30
0.0
 11
181.23699999999999
 21
48.373199999999997
 31
0.0
  0
LINE
  5
507
  8
_________2
 62
     7
 10
181.23699999999999
 20
51.052199999999999
 30
0.0
 11
181.23699999999999
 21
50.800699999999999
 31
0.0
  0
LINE
  5
508
  8
_________2
 62
     7
 10
184.94799999999989
 20
49.832599999999999
 30
0.0
 11
190.12599999999989
 21
48.9679
 31
0.0
  0
LINE
  5
509
  8
_________2
 62
     7
 10
184.94799999999989
 20
52.271700000000003
 30
0.0
 11
190.12599999999989
 21
53.137099999999997
 31
0.0
  0
LINE
  5
50A
  8
_________2
 62
     7
 10
190.12599999999989
 20
48.9679
 30
0.0
 11
190.12599999999989
 21
53.137099999999997
 31
0.0
  0
LINE
  5
50B
  8
_________2
 62
     7
 10
184.94799999999989
 20
49.832599999999999
 30
0.0
 11
184.94799999999989
 21
52.271700000000003
 31
0.0
  0
ARC
  5
50C
  8
_________2
 62
     7
 10
181.190651
 20
51.004810999999989
 30
0.0
 40
1.2677780000000001
 50
2.1403449999999991
 51
87.892005999999995
  0
ARC
  5
50D
  8
_________2
 62
     7
 10
181.28420199999999
 20
51.005241999999988
 30
0.0
 40
1.2673579999999991
 50
92.121564999999975
 51
177.87840600000001
  0
ARC
  5
50E
  8
_________2
 62
     7
 10
181.28381400000001
 20
51.098689
 30
0.0
 40
1.2669559999999991
 50
182.10473099999999
 51
267.89529900000002
  0
ARC
  5
50F
  8
_________2
 62
     7
 10
181.19038399999999
 20
51.099775000000001
 30
0.0
 40
1.268054
 50
272.11960599999998
 51
357.84804300000002
  0
ARC
  5
510
  8
_________2
 62
     7
 10
181.23728399999999
 20
51.05215900000001
 30
0.0
 40
2.0849849999999992
 50
0.00001
 51
89.999980000000008
  0
ARC
  5
511
  8
_________2
 62
     7
 10
181.317331
 20
50.972827000000002
 30
0.0
 40
2.1657969999999991
 50
92.118111999999996
 51
177.90079600000001
  0
ARC
  5
512
  8
_________2
 62
     7
 10
181.31728799999999
 20
51.132162999999998
 30
0.0
 40
2.1657779999999991
 50
182.11700400000001
 51
267.88302499999998
  0
ARC
  5
513
  8
_________2
 62
     7
 10
181.15730300000001
 20
51.132855999999997
 30
0.0
 40
2.166469999999999
 50
272.115725
 51
357.86534699999999
  0
ENDBLK
  5
514
  8
_________2
  0
ENDSEC
  0
SECTION
  2
ENTITIES
  0
TEXT
  5
515
  8
____
 62
     7
 10
95.551900000000003
 20
215.89827
 30
0.0
 40
3.0923400000000001
  1
W.L
 50
90.0
 41
0.5
 72
     2
 11
95.551900000000003
 21
219.506
 31
0.0
  0
TEXT
  5
516
  8
____
 62
     7
 10
113.2057825714286
 20
202.87700000000001
 30
0.0
 40
3.0923400000000001
  1
90mm以上スペースを設けてください。
 41
0.5
 72
     2
 11
145.58699999999999
 21
202.87700000000001
 31
0.0
  0
TEXT
  5
517
  8
____
 62
     7
 10
84.082920000000016
 20
143.286
 30
0.0
 40
3.0923400000000001
  1
61
 41
0.5
 72
     1
 11
85.113699999999994
 21
143.286
 31
0.0
  0
TEXT
  5
518
  8
____
 62
     7
 10
67.990424999999973
 20
143.286
 30
0.0
 40
3.0923400000000001
  1
84
 41
0.5
 72
     1
 11
69.278899999999993
 21
143.286
 31
0.0
  0
TEXT
  5
519
  8
____
 62
     7
 10
-7.3529099999999996
 20
161.01400000000001
 30
0.0
 40
3.0923400000000001
  1
開
 41
0.5
  0
TEXT
  5
51A
  8
____
 62
     7
 10
-17.172713999999999
 20
166.87899999999999
 30
0.0
 40
3.0923400000000001
  1
閉
 41
0.5
 72
     2
 11
-15.832700000000001
 21
166.87899999999999
 31
0.0
  0
TEXT
  5
51B
  8
____
 62
     7
 10
91.125399999999999
 20
162.85900000000001
 30
0.0
 40
3.0923400000000001
  1
湯
 41
0.5
  0
TEXT
  5
51C
  8
____
 62
     7
 10
84.180035000000004
 20
172.946
 30
0.0
 40
3.0923400000000001
  1
57%%d
 41
0.5
 72
     1
 11
85.983900000000006
 21
172.946
 31
0.0
  0
TEXT
  5
51D
  8
____
 62
     7
 10
61.631435000000003
 20
168.15000000000001
 30
0.0
 40
3.0923400000000001
  1
57%%d
 41
0.5
 72
     1
 11
63.435299999999998
 21
168.15000000000001
 31
0.0
  0
TEXT
  5
51E
  8
____
 62
     7
 10
59.002507999999999
 20
154.47200000000001
 30
0.0
 40
3.0923400000000001
  1
水
 41
0.5
 72
     2
 11
60.445599999999999
 21
154.47200000000001
 31
0.0
  0
TEXT
  5
51F
  8
____
 62
     7
 10
85.094080000000005
 20
128.232
 30
0.0
 40
3.0923400000000001
  1
%%c33
 41
0.5
 72
     2
 11
89.217200000000005
 21
128.232
 31
0.0
  0
TEXT
  5
520
  8
____
 62
     7
 10
-24.4503925
 20
238.12200000000001
 30
0.0
 40
3.0923400000000001
  1
スパウト回転360%%d
 41
0.5
 72
     1
 11
-16.332999999999998
 21
238.12200000000001
 31
0.0
  0
TEXT
  5
521
  8
____
 62
     7
 10
36.869655000000002
 20
176.08000000000001
 30
0.0
 40
3.0923400000000001
  1
10%%d
 41
0.5
 72
     2
 11
39.704300000000003
 21
176.08000000000001
 31
0.0
  0
TEXT
  5
522
  8
____
 62
     7
 10
-41.909499999999987
 20
140.053
 30
0.0
 40
3.0923400000000001
  1
28
 41
0.5
  0
TEXT
  5
523
  8
____
 62
     7
 10
-23.653475
 20
140.053
 30
0.0
 40
3.0923400000000001
  1
95
 41
0.5
 72
     1
 11
-22.364999999999998
 21
140.053
 31
0.0
  0
TEXT
  5
524
  8
____
 62
     7
 10
-20.729265000000002
 20
180.14099999999999
 30
0.0
 40
3.0923400000000001
  1
127
 41
0.5
 72
     1
 11
-18.9254
 21
180.14099999999999
 31
0.0
  0
TEXT
  5
525
  8
____
 62
     7
 10
54.18824
 20
205.82499999999999
 30
0.0
 40
3.0923400000000001
  1
225
 41
0.5
 72
     1
 11
56.2498
 21
205.82499999999999
 31
0.0
  0
TEXT
  5
526
  8
____
 62
     7
 10
76.088139999999996
 20
137.768
 30
0.0
 40
3.0923400000000001
  1
%%c44
 41
0.5
 72
     1
 11
78.149699999999996
 21
137.768
 31
0.0
  0
TEXT
  5
527
  8
____
 62
     7
 10
84.554580000000001
 20
179.89400000000001
 30
0.0
 40
3.0923400000000001
  1
%%c24
 41
0.5
 72
     2
 11
88.677700000000002
 21
179.89400000000001
 31
0.0
  0
TEXT
  5
528
  8
____
 62
     7
 10
58.677100000000003
 20
114.47
 30
0.0
 40
3.0923400000000001
  1
（t＝25）
 41
0.5
  0
TEXT
  5
529
  8
____
 62
     7
 10
58.677100000000003
 20
118.864
 30
0.0
 40
3.0923400000000001
  1
スペーサー
 41
0.5
  0
TEXT
  5
52A
  8
____
 62
     7
 10
-44.643199999999993
 20
26.684799999999999
 30
0.0
 40
3.0923400000000001
  1
PF 3/8
 41
0.5
  0
TEXT
  5
52B
  8
____
 62
     7
 10
-4.4913999999999987
 20
141.69183000000001
 30
0.0
 40
3.0923400000000001
  1
100
 50
90.0
 41
0.5
 72
     1
 11
-4.4913999999999987
 21
143.238
 31
0.0
  0
TEXT
  5
52C
  8
____
 62
     7
 10
-44.3583
 20
150.95444000000001
 30
0.0
 40
3.0923400000000001
  1
%%c47
 50
90.0
 41
0.5
 72
     1
 11
-44.3583
 21
153.01599999999999
 31
0.0
  0
TEXT
  5
52D
  8
____
 62
     7
 10
2.6892599999999991
 20
149.153355
 30
0.0
 40
3.0923400000000001
  1
187.5
 50
90.0
 41
0.5
 72
     1
 11
2.6892599999999991
 21
151.988
 31
0.0
  0
TEXT
  5
52E
  8
____
 62
     7
 10
18.4803
 20
163.60944000000001
 30
0.0
 40
3.0923400000000001
  1
324
 50
90.0
 41
0.5
 72
     1
 11
18.4803
 21
165.67099999999999
 31
0.0
  0
TEXT
  5
52F
  8
____
 62
     7
 10
26.136700000000001
 20
156.10643999999999
 30
0.0
 40
3.0923400000000001
  1
246
 50
90.0
 41
0.5
 72
     1
 11
26.136700000000001
 21
158.16800000000001
 31
0.0
  0
TEXT
  5
530
  8
____
 62
     7
 10
53.4968
 20
81.433935000000005
 30
0.0
 40
3.0923400000000001
  1
500
 50
90.0
 41
0.5
 72
     1
 11
53.4968
 21
83.237799999999993
 31
0.0
  0
TEXT
  5
531
  8
____
 62
     7
 10
64.294499999999999
 20
124.67915000000001
 30
0.0
 40
3.0923400000000001
  1
max.45
 50
90.0
 41
0.5
 72
     2
 11
64.294499999999999
 21
132.41
 31
0.0
  0
TEXT
  5
532
  8
____
 62
     7
 10
65.233999999999995
 20
255.916
 30
0.0
 40
3.0923400000000001
  1
%%c35
 41
0.5
  0
TEXT
  5
533
  8
____
 62
     7
 10
73.542745999999994
 20
248.24299999999999
 30
0.0
 40
3.0923400000000001
  1
水栓取付穴
 41
0.5
 72
     1
 11
77.975099999999983
 21
248.24299999999999
 31
0.0
  0
TEXT
  5
534
  8
____
 62
     7
 10
60.191952000000001
 20
27.7422
 30
0.0
 40
3.0923400000000001
  1
水側
 41
0.5
 72
     1
 11
61.841200000000001
 21
27.7422
 31
0.0
  0
TEXT
  5
535
  8
____
 62
     7
 10
68.655252000000004
 20
27.7422
 30
0.0
 40
3.0923400000000001
  1
湯側
 41
0.5
 72
     1
 11
70.304500000000004
 21
27.7422
 31
0.0
  0
LINE
  5
536
  8
_________1
 62
     7
 10
88.108900000000006
 20
189.81999999999999
 30
0.0
 11
100.006
 21
202.17699999999999
 31
0.0
  0
LINE
  5
537
  8
_________1
 62
     7
 10
80.462100000000007
 20
190.393
 30
0.0
 11
78.251699999999985
 21
189.80099999999999
 31
0.0
  0
LINE
  5
538
  8
_________1
 62
     7
 10
78.251699999999985
 20
189.80099999999999
 30
0.0
 11
80.462100000000007
 21
189.208
 31
0.0
  0
LINE
  5
539
  8
_________1
 62
     7
 10
80.462100000000007
 20
189.208
 30
0.0
 11
80.462100000000007
 21
190.393
 31
0.0
  0
LINE
  5
53A
  8
_________1
 62
     7
 10
94.040800000000004
 20
189.2229999999999
 30
0.0
 11
96.251900000000006
 21
189.815
 31
0.0
  0
LINE
  5
53B
  8
_________1
 62
     7
 10
96.251900000000006
 20
189.815
 30
0.0
 11
94.040800000000004
 21
190.40700000000001
 31
0.0
  0
LINE
  5
53C
  8
_________1
 62
     7
 10
94.040800000000004
 20
190.40700000000001
 30
0.0
 11
94.040800000000004
 21
189.2229999999999
 31
0.0
  0
LINE
  5
53D
  8
_________1
 62
     7
 10
78.251699999999985
 20
189.80799999999999
 30
0.0
 11
96.251900000000006
 21
189.80799999999999
 31
0.0
  0
LINE
  5
53E
  8
_________1
 62
     7
 10
100.006
 20
202.17699999999999
 30
0.0
 11
145.58699999999999
 21
202.17699999999999
 31
0.0
  0
LINE
  5
53F
  8
_________1
  6
AIGENLINE002
 62
     7
 10
96.251900000000006
 20
124.334
 30
0.0
 11
96.251900000000006
 21
219.506
 31
0.0
  0
LINE
  5
540
  8
_________1
 62
     7
 10
61.391999999999989
 20
141.886
 30
0.0
 11
61.391999999999989
 21
157.267
 31
0.0
  0
LINE
  5
541
  8
_________1
 62
     7
 10
88.270499999999984
 20
141.994
 30
0.0
 11
90.482200000000006
 21
142.58600000000001
 31
0.0
  0
LINE
  5
542
  8
_________1
 62
     7
 10
90.482200000000006
 20
142.58600000000001
 30
0.0
 11
88.270499999999984
 21
143.179
 31
0.0
  0
LINE
  5
543
  8
_________1
 62
     7
 10
88.270499999999984
 20
143.179
 30
0.0
 11
88.270499999999984
 21
141.994
 31
0.0
  0
LINE
  5
544
  8
_________1
 62
     7
 10
76.040300000000002
 20
141.994
 30
0.0
 11
78.251999999999995
 21
142.58600000000001
 31
0.0
  0
LINE
  5
545
  8
_________1
 62
     7
 10
78.251999999999995
 20
142.58600000000001
 30
0.0
 11
76.040300000000002
 21
143.179
 31
0.0
  0
LINE
  5
546
  8
_________1
 62
     7
 10
76.040300000000002
 20
143.179
 30
0.0
 11
76.040300000000002
 21
141.994
 31
0.0
  0
LINE
  5
547
  8
_________1
 62
     7
 10
80.463099999999997
 20
143.179
 30
0.0
 11
78.251999999999995
 21
142.58600000000001
 31
0.0
  0
LINE
  5
548
  8
_________1
 62
     7
 10
78.251999999999995
 20
142.58600000000001
 30
0.0
 11
80.463099999999997
 21
141.994
 31
0.0
  0
LINE
  5
549
  8
_________1
 62
     7
 10
80.463099999999997
 20
141.994
 30
0.0
 11
80.463099999999997
 21
143.179
 31
0.0
  0
LINE
  5
54A
  8
_________1
 62
     7
 10
63.603099999999998
 20
143.179
 30
0.0
 11
61.391999999999989
 21
142.58600000000001
 31
0.0
  0
LINE
  5
54B
  8
_________1
 62
     7
 10
61.391999999999989
 20
142.58600000000001
 30
0.0
 11
63.603099999999998
 21
141.994
 31
0.0
  0
LINE
  5
54C
  8
_________1
 62
     7
 10
63.603099999999998
 20
141.994
 30
0.0
 11
63.603099999999998
 21
143.179
 31
0.0
  0
INSERT
  5
54D
  8
_________1
 62
     7
  2
AIGNBL02010002
 10
0.0
 20
0.0
 30
0.0
  0
INSERT
  5
54E
  8
_________1
 62
     7
  2
AIGNBL02010003
 10
0.0
 20
0.0
 30
0.0
  0
INSERT
  5
54F
  8
_________1
 62
     7
  2
AIGNBL02010004
 10
0.0
 20
0.0
 30
0.0
  0
INSERT
  5
550
  8
_________1
 62
     7
  2
AIGNBL02010007
 10
0.0
 20
0.0
 30
0.0
  0
INSERT
  5
551
  8
_________1
 62
     7
  2
AIGNBL02010008
 10
0.0
 20
0.0
 30
0.0
  0
INSERT
  5
552
  8
_________1
 62
     7
  2
AIGNBL0201000B
 10
0.0
 20
0.0
 30
0.0
  0
ARC
  5
553
  8
_________1
 62
     7
 10
78.637968999999998
 20
152.700705
 30
0.0
 40
20.185341999999999
 50
91.095484999999996
 51
160.88665700000001
  0
ARC
  5
554
  8
_________1
 62
     7
 10
78.174203000000006
 20
153.03788399999999
 30
0.0
 40
19.844626999999999
 50
48.219687999999998
 51
89.775230000000008
  0
INSERT
  5
555
  8
_________1
 62
     7
  2
AIGNBL0201000C
 10
0.0
 20
0.0
 30
0.0
  0
INSERT
  5
556
  8
_________1
 62
     7
  2
AIGNBL0201000D
 10
0.0
 20
0.0
 30
0.0
  0
INSERT
  5
557
  8
_________1
 62
     7
  2
AIGNBL0201000E
 10
0.0
 20
0.0
 30
0.0
  0
LINE
  5
558
  8
_________1
 62
     7
 10
90.482200000000006
 20
141.886
 30
0.0
 11
90.482200000000006
 21
164.64500000000001
 31
0.0
  0
INSERT
  5
559
  8
_________1
 62
     7
  2
AIGNBL02010011
 10
0.0
 20
0.0
 30
0.0
  0
INSERT
  5
55A
  8
_________1
 62
     7
  2
AIGNBL02010012
 10
0.0
 20
0.0
 30
0.0
  0
INSERT
  5
55B
  8
_________1
 62
     7
  2
AIGNBL02010013
 10
0.0
 20
0.0
 30
0.0
  0
LINE
  5
55C
  8
_________1
 62
     7
 10
-33.490699999999997
 20
117.90600000000001
 30
0.0
 11
-33.890300000000003
 21
117.90600000000001
 31
0.0
  0
LINE
  5
55D
  8
_________1
 62
     7
 10
-31.6906
 20
119.036
 30
0.0
 11
-35.690399999999997
 21
119.036
 31
0.0
  0
LINE
  5
55E
  8
_________1
 62
     7
 10
-35.690399999999997
 20
119.036
 30
0.0
 11
-35.690399999999997
 21
117.98999999999999
 31
0.0
  0
ARC
  5
55F
  8
_________1
 62
     7
 10
-35.505499
 20
118.02203900000001
 30
0.0
 40
0.18768
 50
189.90544399999999
 51
201.06865300000001
  0
ARC
  5
560
  8
_________1
 62
     7
 10
-35.312992000000001
 20
118.088956
 30
0.0
 40
0.3914329999999999
 50
200.07910999999999
 51
232.10691199999999
  0
ARC
  5
561
  8
_________1
 62
     7
 10
-35.214601999999999
 20
118.19919
 30
0.0
 40
0.5389470000000001
 50
231.05006900000001
 51
249.41393199999999
  0
ARC
  5
562
  8
_________1
 62
     7
 10
-35.111952000000002
 20
118.454301
 30
0.0
 40
0.8138850000000001
 50
248.96378100000001
 51
263.89801199999999
  0
ARC
  5
563
  8
_________1
 62
     7
 10
-35.050721000000003
 20
118.887967
 30
0.0
 40
1.2516899999999991
 50
263.22117300000002
 51
270.20950199999999
  0
LINE
  5
564
  8
_________1
 62
     7
 10
-35.046100000000003
 20
117.636
 30
0.0
 11
-31.6906
 21
117.636
 31
0.0
  0
LINE
  5
565
  8
_________1
 62
     7
 10
-33.490699999999997
 20
119.036
 30
0.0
 11
-33.490699999999997
 21
117.90600000000001
 31
0.0
  0
ARC
  5
566
  8
_________1
 62
     7
 10
-33.238976999999998
 20
118.064803
 30
0.0
 40
0.297771
 50
212.298903
 51
221.309057
  0
ARC
  5
567
  8
_________1
 62
     7
 10
-32.969653000000001
 20
118.291099
 30
0.0
 40
0.649505
 50
220.62085300000001
 51
262.035642
  0
ARC
  5
568
  8
_________1
 62
     7
 10
-32.919998999999997
 20
118.48428800000001
 30
0.0
 40
0.848007
 50
260.521525
 51
270.17519900000002
  0
LINE
  5
569
  8
_________1
 62
     7
 10
-33.890300000000003
 20
119.036
 30
0.0
 11
-33.890300000000003
 21
117.90600000000001
 31
0.0
  0
ARC
  5
56A
  8
_________1
 62
     7
 10
-34.661383000000001
 20
119.317858
 30
0.0
 40
1.608963999999999
 50
294.71506299999999
 51
298.63559500000002
  0
ARC
  5
56B
  8
_________1
 62
     7
 10
-35.151159999999997
 20
120.298193
 30
0.0
 40
2.7045049999999988
 50
283.58152999999999
 51
295.457176
  0
ARC
  5
56C
  8
_________1
 62
     7
 10
-34.813819000000009
 20
118.986654
 30
0.0
 40
1.35057
 50
270.98861299999999
 51
282.73638899999997
  0
LINE
  5
56D
  8
_________1
 62
     7
 10
-29.890499999999999
 20
117.90600000000001
 30
0.0
 11
-29.490500000000001
 21
117.90600000000001
 31
0.0
  0
LINE
  5
56E
  8
_________1
 62
     7
 10
-31.6906
 20
119.036
 30
0.0
 11
-27.6905
 21
119.036
 31
0.0
  0
LINE
  5
56F
  8
_________1
 62
     7
 10
-27.6905
 20
119.036
 30
0.0
 11
-27.6905
 21
117.98999999999999
 31
0.0
  0
ARC
  5
570
  8
_________1
 62
     7
 10
-27.876100999999998
 20
118.020872
 30
0.0
 40
0.188217
 50
339.37440900000001
 51
350.48358899999999
  0
ARC
  5
571
  8
_________1
 62
     7
 10
-28.064769999999999
 20
118.085049
 30
0.0
 40
0.387453
 50
308.07729399999999
 51
340.32048500000002
  0
ARC
  5
572
  8
_________1
 62
     7
 10
-28.183668999999998
 20
118.222697
 30
0.0
 40
0.5692010000000001
 50
282.232328
 51
308.9534700000001
  0
ARC
  5
573
  8
_________1
 62
     7
 10
-28.312452
 20
118.676962
 30
0.0
 40
1.0408599999999999
 50
268.92636900000002
 51
283.86254200000002
  0
LINE
  5
574
  8
_________1
 62
     7
 10
-28.332000000000001
 20
117.636
 30
0.0
 11
-31.6906
 21
117.636
 31
0.0
  0
LINE
  5
575
  8
_________1
 62
     7
 10
-29.890499999999999
 20
119.036
 30
0.0
 11
-29.890499999999999
 21
117.90600000000001
 31
0.0
  0
ARC
  5
576
  8
_________1
 62
     7
 10
-30.139686999999999
 20
118.062682
 30
0.0
 40
0.294493
 50
318.67989499999999
 51
327.78612800000002
  0
ARC
  5
577
  8
_________1
 62
     7
 10
-30.410958000000001
 20
118.29006699999999
 30
0.0
 40
0.648415
 50
277.93394899999998
 51
319.41668399999998
  0
ARC
  5
578
  8
_________1
 62
     7
 10
-30.461193000000002
 20
118.485355
 30
0.0
 40
0.849074
 50
269.82448199999999
 51
279.47252900000001
  0
LINE
  5
579
  8
_________1
 62
     7
 10
-29.490500000000001
 20
119.036
 30
0.0
 11
-29.490500000000001
 21
117.90600000000001
 31
0.0
  0
ARC
  5
57A
  8
_________1
 62
     7
 10
-28.632179000000001
 20
119.48897100000001
 30
0.0
 40
1.8009900000000001
 50
241.535796
 51
245.224671
  0
ARC
  5
57B
  8
_________1
 62
     7
 10
-28.237898000000001
 20
120.27780799999999
 30
0.0
 40
2.6825890000000001
 50
244.63904500000001
 51
256.69766800000002
  0
ARC
  5
57C
  8
_________1
 62
     7
 10
-28.568068
 20
118.976767
 30
0.0
 40
1.340665999999999
 50
257.6359930000001
 51
269.04816899999997
  0
LINE
  5
57D
  8
_________1
 62
     7
 10
-27.290500000000002
 20
119.036
 30
0.0
 11
-36.090699999999998
 21
119.036
 31
0.0
  0
LINE
  5
57E
  8
_________1
 62
     7
 10
-36.090699999999998
 20
119.036
 30
0.0
 11
-36.090699999999998
 21
119.53700000000001
 31
0.0
  0
LINE
  5
57F
  8
_________1
 62
     7
 10
-36.090699999999998
 20
119.53700000000001
 30
0.0
 11
-27.290500000000002
 21
119.53700000000001
 31
0.0
  0
LINE
  5
580
  8
_________1
 62
     7
 10
-27.290500000000002
 20
119.53700000000001
 30
0.0
 11
-27.290500000000002
 21
119.036
 31
0.0
  0
LINE
  5
581
  8
_________1
 62
     7
 10
-26.890499999999999
 20
119.53700000000001
 30
0.0
 11
-36.490699999999997
 21
119.53700000000001
 31
0.0
  0
LINE
  5
582
  8
_________1
 62
     7
 10
-36.490699999999997
 20
119.53700000000001
 30
0.0
 11
-36.490699999999997
 21
119.836
 31
0.0
  0
LINE
  5
583
  8
_________1
 62
     7
 10
-36.490699999999997
 20
119.836
 30
0.0
 11
-26.890499999999999
 21
119.836
 31
0.0
  0
LINE
  5
584
  8
_________1
 62
     7
 10
-26.890499999999999
 20
119.836
 30
0.0
 11
-26.890499999999999
 21
119.53700000000001
 31
0.0
  0
LINE
  5
585
  8
_________1
 62
     7
 10
-26.890499999999999
 20
119.836
 30
0.0
 11
-36.490699999999997
 21
119.836
 31
0.0
  0
LINE
  5
586
  8
_________1
 62
     7
 10
-36.490699999999997
 20
119.836
 30
0.0
 11
-36.490699999999997
 21
120.236
 31
0.0
  0
LINE
  5
587
  8
_________1
 62
     7
 10
-36.490699999999997
 20
120.236
 30
0.0
 11
-26.890499999999999
 21
120.236
 31
0.0
  0
LINE
  5
588
  8
_________1
 62
     7
 10
-26.890499999999999
 20
120.236
 30
0.0
 11
-26.890499999999999
 21
119.836
 31
0.0
  0
ARC
  5
589
  8
_________1
 62
     7
 10
75.388813999999996
 20
122.467044
 30
0.0
 40
0.194442
 50
182.136886
 51
267.96856400000007
  0
ARC
  5
58A
  8
_________1
 62
     7
 10
75.375101000000001
 20
122.466972
 30
0.0
 40
0.194368
 50
272.01115700000003
 51
357.88343300000003
  0
ARC
  5
58B
  8
_________1
 62
     7
 10
75.37468100000001
 20
122.45255299999999
 30
0.0
 40
0.19479
 50
2.130412999999999
 51
87.869577000000007
  0
ARC
  5
58C
  8
_________1
 62
     7
 10
75.388776000000007
 20
122.4529399999999
 30
0.0
 40
0.194389
 50
92.020612000000014
 51
177.97935899999999
  0
LINE
  5
58D
  8
_________1
 62
     7
 10
75.381900000000002
 20
122.45999999999999
 30
0.0
 11
69.821299999999994
 21
118.304
 31
0.0
  0
LINE
  5
58E
  8
_________1
 62
     7
 10
69.821299999999994
 20
118.304
 30
0.0
 11
58.677100000000003
 21
118.304
 31
0.0
  0
INSERT
  5
58F
  8
_________1
 62
     7
  2
AIGNBL02010014
 10
0.0
 20
0.0
 30
0.0
  0
LINE
  5
590
  8
_________1
 62
     7
 10
76.449600000000004
 20
117.907
 30
0.0
 11
76.049899999999994
 21
117.907
 31
0.0
  0
LINE
  5
591
  8
_________1
 62
     7
 10
78.25
 20
119.038
 30
0.0
 11
74.250200000000007
 21
119.038
 31
0.0
  0
LINE
  5
592
  8
_________1
 62
     7
 10
74.250200000000007
 20
119.038
 30
0.0
 11
74.250200000000007
 21
117.991
 31
0.0
  0
ARC
  5
593
  8
_________1
 62
     7
 10
74.435082999999992
 20
118.023762
 30
0.0
 40
0.18768
 50
189.90544399999999
 51
201.06865300000001
  0
ARC
  5
594
  8
_________1
 62
     7
 10
74.627568000000011
 20
118.09067
 30
0.0
 40
0.391408
 50
200.07898399999999
 51
232.10934700000001
  0
ARC
  5
595
  8
_________1
 62
     7
 10
74.725849999999994
 20
118.20066300000001
 30
0.0
 40
0.538666
 50
231.044611
 51
249.41761
  0
ARC
  5
596
  8
_________1
 62
     7
 10
74.828630000000004
 20
118.456024
 30
0.0
 40
0.8138850000000001
 50
248.96378100000001
 51
263.89801199999999
  0
ARC
  5
597
  8
_________1
 62
     7
 10
74.889860999999996
 20
118.88969
 30
0.0
 40
1.2516899999999991
 50
263.22117300000002
 51
270.20950199999999
  0
LINE
  5
598
  8
_________1
 62
     7
 10
74.894400000000005
 20
117.63800000000001
 30
0.0
 11
78.25
 21
117.63800000000001
 31
0.0
  0
LINE
  5
599
  8
_________1
 62
     7
 10
76.449600000000004
 20
119.038
 30
0.0
 11
76.449600000000004
 21
117.907
 31
0.0
  0
ARC
  5
59A
  8
_________1
 62
     7
 10
76.70270699999999
 20
118.067899
 30
0.0
 40
0.299728
 50
212.373074
 51
221.32985300000001
  0
ARC
  5
59B
  8
_________1
 62
     7
 10
76.971435999999997
 20
118.29431
 30
0.0
 40
0.651084
 50
220.67424800000001
 51
261.988045
  0
ARC
  5
59C
  8
_________1
 62
     7
 10
77.020261000000005
 20
118.485116
 30
0.0
 40
0.847112
 50
260.51653499999998
 51
270.17387500000001
  0
LINE
  5
59D
  8
_________1
 62
     7
 10
76.049899999999994
 20
119.038
 30
0.0
 11
76.049899999999994
 21
117.907
 31
0.0
  0
ARC
  5
59E
  8
_________1
 62
     7
 10
75.277912000000001
 20
119.32131099999999
 30
0.0
 40
1.610935
 50
294.72014900000011
 51
298.63554099999999
  0
ARC
  5
59F
  8
_________1
 62
     7
 10
74.788718000000003
 20
120.30043000000001
 30
0.0
 40
2.7051279999999989
 50
283.58981299999999
 51
295.45957800000002
  0
ARC
  5
5A0
  8
_________1
 62
     7
 10
75.126739000000001
 20
118.986974
 30
0.0
 40
1.349167999999999
 50
270.990656
 51
282.74315100000001
  0
LINE
  5
5A1
  8
_________1
 62
     7
 10
80.049700000000001
 20
117.907
 30
0.0
 11
80.449999999999989
 21
117.907
 31
0.0
  0
LINE
  5
5A2
  8
_________1
 62
     7
 10
78.25
 20
119.038
 30
0.0
 11
82.249799999999993
 21
119.038
 31
0.0
  0
LINE
  5
5A3
  8
_________1
 62
     7
 10
82.249799999999993
 20
119.038
 30
0.0
 11
82.249799999999993
 21
117.991
 31
0.0
  0
ARC
  5
5A4
  8
_________1
 62
     7
 10
82.064137000000002
 20
118.022595
 30
0.0
 40
0.188217
 50
339.37440900000001
 51
350.48358899999999
  0
ARC
  5
5A5
  8
_________1
 62
     7
 10
81.875467
 20
118.086771
 30
0.0
 40
0.387453
 50
308.07729399999999
 51
340.32048500000002
  0
ARC
  5
5A6
  8
_________1
 62
     7
 10
81.756561000000005
 20
118.224429
 30
0.0
 40
0.569213
 50
282.23337700000002
 51
308.95343400000002
  0
ARC
  5
5A7
  8
_________1
 62
     7
 10
81.627768000000003
 20
118.678883
 30
0.0
 40
1.041058
 50
268.927525
 51
283.861133
  0
LINE
  5
5A8
  8
_________1
 62
     7
 10
81.6083
 20
117.63800000000001
 30
0.0
 11
78.25
 21
117.63800000000001
 31
0.0
  0
LINE
  5
5A9
  8
_________1
 62
     7
 10
80.049700000000001
 20
119.038
 30
0.0
 11
80.049700000000001
 21
117.907
 31
0.0
  0
ARC
  5
5AA
  8
_________1
 62
     7
 10
79.800550999999999
 20
118.06440499999999
 30
0.0
 40
0.294493
 50
318.67989499999999
 51
327.78612800000002
  0
ARC
  5
5AB
  8
_________1
 62
     7
 10
79.529375000000002
 20
118.291614
 30
0.0
 40
0.6482280000000001
 50
277.92769700000002
 51
319.42293599999999
  0
ARC
  5
5AC
  8
_________1
 62
     7
 10
79.479044999999985
 20
118.487078
 30
0.0
 40
0.849074
 50
269.82448199999999
 51
279.47252900000001
  0
LINE
  5
5AD
  8
_________1
 62
     7
 10
80.449999999999989
 20
119.038
 30
0.0
 11
80.449999999999989
 21
117.907
 31
0.0
  0
ARC
  5
5AE
  8
_________1
 62
     7
 10
81.315027000000001
 20
119.502962
 30
0.0
 40
1.8149329999999999
 50
241.53657100000001
 51
245.19527400000001
  0
ARC
  5
5AF
  8
_________1
 62
     7
 10
81.701796999999999
 20
120.27640599999999
 30
0.0
 40
2.6794129999999998
 50
244.62629999999999
 51
256.69446399999998
  0
ARC
  5
5B0
  8
_________1
 62
     7
 10
81.372116000000005
 20
118.977632
 30
0.0
 40
1.339809
 50
257.63217500000002
 51
269.04984000000002
  0
LINE
  5
5B1
  8
_________1
 62
     7
 10
82.650099999999995
 20
119.038
 30
0.0
 11
73.849900000000005
 21
119.038
 31
0.0
  0
LINE
  5
5B2
  8
_________1
 62
     7
 10
73.849900000000005
 20
119.038
 30
0.0
 11
73.849900000000005
 21
119.538
 31
0.0
  0
LINE
  5
5B3
  8
_________1
 62
     7
 10
73.849900000000005
 20
119.538
 30
0.0
 11
82.650099999999995
 21
119.538
 31
0.0
  0
LINE
  5
5B4
  8
_________1
 62
     7
 10
82.650099999999995
 20
119.538
 30
0.0
 11
82.650099999999995
 21
119.038
 31
0.0
  0
LINE
  5
5B5
  8
_________1
 62
     7
 10
83.049700000000001
 20
119.538
 30
0.0
 11
73.449600000000004
 21
119.538
 31
0.0
  0
LINE
  5
5B6
  8
_________1
 62
     7
 10
73.449600000000004
 20
119.538
 30
0.0
 11
73.449600000000004
 21
119.83799999999999
 31
0.0
  0
LINE
  5
5B7
  8
_________1
 62
     7
 10
73.449600000000004
 20
119.83799999999999
 30
0.0
 11
83.049700000000001
 21
119.83799999999999
 31
0.0
  0
LINE
  5
5B8
  8
_________1
 62
     7
 10
83.049700000000001
 20
119.83799999999999
 30
0.0
 11
83.049700000000001
 21
119.538
 31
0.0
  0
LINE
  5
5B9
  8
_________1
 62
     7
 10
83.049700000000001
 20
119.83799999999999
 30
0.0
 11
73.449600000000004
 21
119.83799999999999
 31
0.0
  0
LINE
  5
5BA
  8
_________1
 62
     7
 10
73.449600000000004
 20
119.83799999999999
 30
0.0
 11
73.449600000000004
 21
120.238
 31
0.0
  0
LINE
  5
5BB
  8
_________1
 62
     7
 10
73.449600000000004
 20
120.238
 30
0.0
 11
83.049700000000001
 21
120.238
 31
0.0
  0
LINE
  5
5BC
  8
_________1
 62
     7
 10
83.049700000000001
 20
120.238
 30
0.0
 11
83.049700000000001
 21
119.83799999999999
 31
0.0
  0
LINE
  5
5BD
  8
_________1
 62
     7
 10
-13.1717
 20
170.53800000000001
 30
0.0
 11
-13.371499999999999
 21
170.738
 31
0.0
  0
LINE
  5
5BE
  8
_________1
 62
     7
 10
-14.771599999999999
 20
170.53800000000001
 30
0.0
 11
-14.5718
 21
170.738
 31
0.0
  0
LINE
  5
5BF
  8
_________1
 62
     7
 10
-14.771599999999999
 20
170.53800000000001
 30
0.0
 11
-13.1717
 21
170.53800000000001
 31
0.0
  0
LINE
  5
5C0
  8
_________1
 62
     7
 10
-14.5718
 20
170.738
 30
0.0
 11
-13.371499999999999
 21
170.738
 31
0.0
  0
LINE
  5
5C1
  8
_________1
 62
     7
 10
-13.1717
 20
170.53800000000001
 30
0.0
 11
-13.1717
 21
157.93799999999999
 31
0.0
  0
LINE
  5
5C2
  8
_________1
 62
     7
 10
-14.771599999999999
 20
170.53800000000001
 30
0.0
 11
-14.771599999999999
 21
157.93799999999999
 31
0.0
  0
ARC
  5
5C3
  8
_________1
 62
     7
 10
-13.994453999999999
 20
261.921807
 30
0.0
 40
0.6233430000000001
 50
272.09438799999998
 51
357.88917400000003
  0
ARC
  5
5C4
  8
_________1
 62
     7
 10
-13.949127000000001
 20
261.92157200000003
 30
0.0
 40
0.6231
 50
182.09006500000001
 51
267.92641299999991
  0
ARC
  5
5C5
  8
_________1
 62
     7
 10
-13.948893
 20
261.87588899999997
 30
0.0
 40
0.6233430000000001
 50
92.094351000000003
 51
177.889171
  0
ARC
  5
5C6
  8
_________1
 62
     7
 10
-13.994218999999999
 20
261.87612300000001
 30
0.0
 40
0.6231
 50
2.0900620000000001
 51
87.926376000000005
  0
ARC
  5
5C7
  8
_________1
 62
     7
 10
-14.002269
 20
261.92944399999999
 30
0.0
 40
0.8311159999999999
 50
272.109737
 51
357.89027299999998
  0
ARC
  5
5C8
  8
_________1
 62
     7
 10
-13.941077
 20
261.92944399999999
 30
0.0
 40
0.8311149999999999
 50
182.10972899999999
 51
267.89030000000002
  0
ARC
  5
5C9
  8
_________1
 62
     7
 10
-13.941077
 20
261.86825199999998
 30
0.0
 40
0.8311149999999999
 50
92.109700000000004
 51
177.89027100000001
  0
ARC
  5
5CA
  8
_________1
 62
     7
 10
-14.002269
 20
261.86825199999998
 30
0.0
 40
0.8311159999999999
 50
2.109726999999999
 51
87.890263000000004
  0
INSERT
  5
5CB
  8
_________1
 62
     7
  2
AIGNBL02010016
 10
0.0
 20
0.0
 30
0.0
  0
INSERT
  5
5CC
  8
_________1
 62
     7
  2
AIGNBL02010017
 10
0.0
 20
0.0
 30
0.0
  0
INSERT
  5
5CD
  8
_________1
 62
     7
  2
AIGNBL02010018
 10
0.0
 20
0.0
 30
0.0
  0
INSERT
  5
5CE
  8
_________1
 62
     7
  2
AIGNBL02010019
 10
0.0
 20
0.0
 30
0.0
  0
INSERT
  5
5CF
  8
_________1
 62
     7
  2
AIGNBL0201001A
 10
0.0
 20
0.0
 30
0.0
  0
INSERT
  5
5D0
  8
_________1
 62
     7
  2
AIGNBL0201001B
 10
0.0
 20
0.0
 30
0.0
  0
INSERT
  5
5D1
  8
_________1
 62
     7
  2
AIGNBL0201001C
 10
0.0
 20
0.0
 30
0.0
  0
INSERT
  5
5D2
  8
_________1
 62
     7
  2
AIGNBL0201001D
 10
0.0
 20
0.0
 30
0.0
  0
INSERT
  5
5D3
  8
_________1
 62
     7
  2
AIGNBL0201001E
 10
0.0
 20
0.0
 30
0.0
  0
INSERT
  5
5D4
  8
_________1
 62
     7
  2
AIGNBL0201001F
 10
0.0
 20
0.0
 30
0.0
  0
INSERT
  5
5D5
  8
_________1
 62
     7
  2
AIGNBL02010020
 10
0.0
 20
0.0
 30
0.0
  0
INSERT
  5
5D6
  8
_________1
 62
     7
  2
AIGNBL02010021
 10
0.0
 20
0.0
 30
0.0
  0
LINE
  5
5D7
  8
_________1
 62
     7
 10
-33.590600000000002
 20
25.9848
 30
0.0
 11
-29.789899999999999
 21
25.9848
 31
0.0
  0
INSERT
  5
5D8
  8
_________1
 62
     7
  2
AIGNBL02010022
 10
0.0
 20
0.0
 30
0.0
  0
LINE
  5
5D9
  8
_________1
 62
     7
 10
-33.3904
 20
25.284700000000001
 30
0.0
 11
-33.3904
 21
32.582500000000003
 31
0.0
  0
LINE
  5
5DA
  8
_________1
 62
     7
 10
-29.990100000000002
 20
25.284700000000001
 30
0.0
 11
-29.990100000000002
 21
32.582500000000003
 31
0.0
  0
INSERT
  5
5DB
  8
_________1
 62
     7
  2
AIGNBL02010023
 10
0.0
 20
0.0
 30
0.0
  0
LINE
  5
5DC
  8
_________1
 62
     7
 10
-32.740699999999997
 20
39.444899999999997
 30
0.0
 11
-32.740699999999997
 21
115.23699999999999
 31
0.0
  0
LINE
  5
5DD
  8
_________1
 62
     7
 10
-30.640499999999999
 20
39.444899999999997
 30
0.0
 11
-30.640499999999999
 21
115.23699999999999
 31
0.0
  0
LINE
  5
5DE
  8
_________1
 62
     7
 10
-29.488099999999999
 20
35.543599999999998
 30
0.0
 11
-29.488099999999999
 21
33.442399999999999
 31
0.0
  0
LINE
  5
5DF
  8
_________1
 62
     7
 10
-30.5885
 20
35.543599999999998
 30
0.0
 11
-30.5885
 21
33.442399999999999
 31
0.0
  0
ARC
  5
5E0
  8
_________1
 62
     7
 10
-32.130082000000002
 20
39.612431000000001
 30
0.0
 40
6.7118279999999988
 50
291.31268999999998
 51
293.180272
  0
ARC
  5
5E1
  8
_________1
 62
     7
 10
-30.174081999999999
 20
34.634139000000012
 30
0.0
 40
1.3631349999999991
 50
279.67420700000002
 51
290.77325500000001
  0
ARC
  5
5E2
  8
_________1
 62
     7
 10
-30.050338
 20
33.997247000000002
 30
0.0
 40
0.7146620000000001
 50
270.19001600000001
 51
278.47499199999999
  0
ARC
  5
5E3
  8
_________1
 62
     7
 10
-30.047231
 20
34.021698000000001
 30
0.0
 40
0.7391090000000001
 50
256.33946900000001
 51
269.94282099999998
  0
ARC
  5
5E4
  8
_________1
 62
     7
 10
-29.915323000000001
 20
34.625655000000002
 30
0.0
 40
1.3572120000000001
 50
245.13305399999999
 51
256.94990200000001
  0
ARC
  5
5E5
  8
_________1
 62
     7
 10
-29.407045
 20
35.822565000000012
 30
0.0
 40
2.6572230000000001
 50
243.600807
 51
246.04220900000001
  0
ARC
  5
5E6
  8
_________1
 62
     7
 10
-29.996224999999999
 20
34.669687000000003
 30
0.0
 40
1.0557259999999991
 50
92.809301000000019
 51
124.12629099999999
  0
ARC
  5
5E7
  8
_________1
 62
     7
 10
-30.048470999999999
 20
34.984592999999997
 30
0.0
 40
0.7395510000000001
 50
76.442886000000001
 51
89.961050999999983
  0
ARC
  5
5E8
  8
_________1
 62
     7
 10
-30.141451
 20
34.549896000000011
 30
0.0
 40
1.1839879999999989
 50
64.649830000000009
 51
76.999894999999995
  0
ARC
  5
5E9
  8
_________1
 62
     7
 10
-30.348116999999998
 20
34.071326999999997
 30
0.0
 40
1.7050540000000001
 50
59.710383999999991
 51
65.259174999999999
  0
LINE
  5
5EA
  8
_________1
 62
     7
 10
-33.888199999999998
 20
35.543599999999998
 30
0.0
 11
-33.888199999999998
 21
33.442399999999999
 31
0.0
  0
LINE
  5
5EB
  8
_________1
 62
     7
 10
-32.788600000000002
 20
35.543599999999998
 30
0.0
 11
-32.788600000000002
 21
33.442399999999999
 31
0.0
  0
ARC
  5
5EC
  8
_________1
 62
     7
 10
-35.193292999999997
 20
39.020791000000003
 30
0.0
 40
6.0745959999999988
 50
291.34287899999998
 51
293.320087
  0
ARC
  5
5ED
  8
_________1
 62
     7
 10
-33.501469
 20
34.708851000000003
 30
0.0
 40
1.4426509999999999
 50
280.19748299999998
 51
291.08572400000003
  0
ARC
  5
5EE
  8
_________1
 62
     7
 10
-33.331242000000003
 20
33.851846999999999
 30
0.0
 40
0.569267
 50
270.31987900000001
 51
278.60581300000001
  0
ARC
  5
5EF
  8
_________1
 62
     7
 10
-33.327528000000001
 20
34.018729999999998
 30
0.0
 40
0.736142
 50
256.19376299999999
 51
269.95824499999998
  0
ARC
  5
5F0
  8
_________1
 62
     7
 10
-33.211649000000001
 20
34.570067999999999
 30
0.0
 40
1.2993429999999999
 50
251.28995
 51
257.0333950000001
  0
ARC
  5
5F1
  8
_________1
 62
     7
 10
-32.663627000000012
 20
36.150644
 30
0.0
 40
2.97221
 50
245.66815399999999
 51
251.057751
  0
ARC
  5
5F2
  8
_________1
 62
     7
 10
-33.093633000000011
 20
34.180996999999998
 30
0.0
 40
1.5773839999999999
 50
106.3542409999999
 51
120.248389
  0
ARC
  5
5F3
  8
_________1
 62
     7
 10
-33.315109999999997
 20
34.874186000000002
 30
0.0
 40
0.850056
 50
90.873160999999996
 51
105.186025
  0
ARC
  5
5F4
  8
_________1
 62
     7
 10
-33.328536999999997
 20
35.10568
 30
0.0
 40
0.618464
 50
75.005428000000023
 51
89.956233999999995
  0
ARC
  5
5F5
  8
_________1
 62
     7
 10
-33.471666999999997
 20
34.482680999999999
 30
0.0
 40
1.257490999999999
 50
63.742472999999997
 51
76.050279000000003
  0
ARC
  5
5F6
  8
_________1
 62
     7
 10
-33.668154000000001
 20
34.027819000000001
 30
0.0
 40
1.7525230000000001
 50
59.874073000000003
 51
64.560518000000002
  0
ARC
  5
5F7
  8
_________1
 62
     7
 10
-29.507930000000002
 20
28.02187
 30
0.0
 40
5.527228
 50
101.27396899999999
 51
103.427391
  0
ARC
  5
5F8
  8
_________1
 62
     7
 10
-31.911377000000002
 20
37.685811000000001
 30
0.0
 40
4.4316500000000003
 50
278.46848299999999
 51
284.63834900000001
  0
ARC
  5
5F9
  8
_________1
 62
     7
 10
-31.526107
 20
35.081786000000001
 30
0.0
 40
1.799282
 50
270.55438700000002
 51
278.54531100000003
  0
LINE
  5
5FA
  8
_________1
 62
     7
 10
-31.508700000000001
 20
33.282600000000002
 30
0.0
 11
-31.867999999999999
 21
33.282600000000002
 31
0.0
  0
ARC
  5
5FB
  8
_________1
 62
     7
 10
-31.866699000000001
 20
34.885672
 30
0.0
 40
1.6030829999999989
 50
260.63633499999997
 51
269.952676
  0
ARC
  5
5FC
  8
_________1
 62
     7
 10
-31.612272000000001
 20
36.642156999999997
 30
0.0
 40
3.377739
 50
257.71888300000001
 51
261.22569700000003
  0
ARC
  5
5FD
  8
_________1
 62
     7
 10
-40.716328999999988
 20
-3.680871999999999
 30
0.0
 40
37.960374000000002
 50
77.237880000000004
 51
77.945414999999997
  0
ARC
  5
5FE
  8
_________1
 62
     7
 10
-31.783892000000002
 20
32.588115000000002
 30
0.0
 40
3.1215959999999989
 50
102.063368
 51
108.774478
  0
ARC
  5
5FF
  8
_________1
 62
     7
 10
-31.644739999999999
 20
32.138827999999997
 30
0.0
 40
3.5902910000000001
 50
92.451288999999989
 51
102.736519
  0
ARC
  5
600
  8
_________1
 62
     7
 10
-31.766729000000002
 20
34.195050999999999
 30
0.0
 40
1.531107999999999
 50
87.059633999999988
 51
91.181416000000013
  0
ARC
  5
601
  8
_________1
 62
     7
 10
-31.622471000000001
 20
34.5702
 30
0.0
 40
1.1558129999999991
 50
88.554182999999995
 51
93.259502999999995
  0
ARC
  5
602
  8
_________1
 62
     7
 10
-31.641888999999999
 20
33.519297999999999
 30
0.0
 40
2.2068819999999989
 50
84.572031999999993
 51
88.738597999999996
  0
ARC
  5
603
  8
_________1
 62
     7
 10
-31.814375999999999
 20
31.699195
 30
0.0
 40
4.035139
 50
72.314098000000001
 51
84.578528000000006
  0
LINE
  5
604
  8
_________1
 62
     7
 10
-30.6877
 20
35.864699999999999
 30
0.0
 11
-31.688199999999998
 21
35.864699999999999
 31
0.0
  0
LINE
  5
605
  8
_________1
 62
     7
 10
-32.688299999999998
 20
35.864699999999999
 30
0.0
 11
-31.688199999999998
 21
35.864699999999999
 31
0.0
  0
LINE
  5
606
  8
_________1
 62
     7
 10
-33.5289
 20
33.243699999999997
 30
0.0
 11
-31.688199999999998
 21
33.243699999999997
 31
0.0
  0
LINE
  5
607
  8
_________1
 62
     7
 10
-31.688199999999998
 20
33.243699999999997
 30
0.0
 11
-29.847799999999999
 21
33.243699999999997
 31
0.0
  0
LINE
  5
608
  8
_________1
 62
     7
 10
-29.607299999999999
 20
33.403500000000001
 30
0.0
 11
-29.847799999999999
 21
33.263000000000012
 31
0.0
  0
LINE
  5
609
  8
_________1
 62
     7
 10
-29.847799999999999
 20
33.263000000000012
 30
0.0
 11
-29.847799999999999
 21
33.243699999999997
 31
0.0
  0
LINE
  5
60A
  8
_________1
 62
     7
 10
-29.488099999999999
 20
33.442399999999999
 30
0.0
 11
-29.847799999999999
 21
33.263000000000012
 31
0.0
  0
LINE
  5
60B
  8
_________1
 62
     7
 10
-33.888199999999998
 20
33.442399999999999
 30
0.0
 11
-33.5289
 21
33.243699999999997
 31
0.0
  0
LINE
  5
60C
  8
_________1
 62
     7
 10
-33.5289
 20
35.743400000000001
 30
0.0
 11
-29.847799999999999
 21
35.743400000000001
 31
0.0
  0
LINE
  5
60D
  8
_________1
 62
     7
 10
-32.928400000000003
 20
35.843000000000011
 30
0.0
 11
-30.447900000000001
 21
35.843000000000011
 31
0.0
  0
ARC
  5
60E
  8
_________1
 62
     7
 10
-30.890428
 20
36.405982999999999
 30
0.0
 40
0.5779880000000001
 50
290.53024699999997
 51
322.34792800000002
  0
ARC
  5
60F
  8
_________1
 62
     7
 10
-30.76760800000001
 20
36.295929999999998
 30
0.0
 40
0.4136970000000001
 50
324.02483599999999
 51
341.3653930000001
  0
LINE
  5
610
  8
_________1
 62
     7
 10
-30.375599999999999
 20
36.163699999999999
 30
0.0
 11
-30.348400000000002
 21
36.243699999999997
 31
0.0
  0
LINE
  5
611
  8
_________1
 62
     7
 10
-30.348400000000002
 20
36.243699999999997
 30
0.0
 11
-30.348400000000002
 21
36.363599999999998
 31
0.0
  0
LINE
  5
612
  8
_________1
 62
     7
 10
-30.348400000000002
 20
36.363599999999998
 30
0.0
 11
-30.388000000000002
 21
36.504100000000001
 31
0.0
  0
LINE
  5
613
  8
_________1
 62
     7
 10
-33.008400000000002
 20
36.504100000000001
 30
0.0
 11
-32.988700000000001
 21
36.504100000000001
 31
0.0
  0
ARC
  5
614
  8
_________1
 62
     7
 10
-16.250329000000001
 20
34.050148999999998
 30
0.0
 40
16.936748999999999
 50
171.669059
 51
172.149348
  0
LINE
  5
615
  8
_________1
 62
     7
 10
-33.028300000000002
 20
36.363599999999998
 30
0.0
 11
-33.028300000000002
 21
36.243699999999997
 31
0.0
  0
LINE
  5
616
  8
_________1
 62
     7
 10
-33.028300000000002
 20
36.243699999999997
 30
0.0
 11
-33.002499999999998
 21
36.163699999999999
 31
0.0
  0
ARC
  5
617
  8
_________1
 62
     7
 10
-32.175699000000002
 20
36.441001999999997
 30
0.0
 40
0.872053
 50
198.53851499999999
 51
203.97257500000001
  0
ARC
  5
618
  8
_________1
 62
     7
 10
-32.658651999999996
 20
36.225566999999998
 30
0.0
 40
0.343228
 50
203.86762999999999
 51
237.968886
  0
ARC
  5
619
  8
_________1
 62
     7
 10
-32.155881000000001
 20
37.074359000000001
 30
0.0
 40
1.3296760000000001
 50
239.00109800000001
 51
245.46901700000001
  0
LINE
  5
61A
  8
_________1
 62
     7
 10
-32.707900000000002
 20
35.864699999999999
 30
0.0
 11
-32.688299999999998
 21
35.864699999999999
 31
0.0
  0
LINE
  5
61B
  8
_________1
 62
     7
 10
-32.848500000000001
 20
36.843499999999999
 30
0.0
 11
-30.547899999999998
 21
36.843499999999999
 31
0.0
  0
LINE
  5
61C
  8
_________1
 62
     7
 10
-32.848500000000001
 20
38.444400000000002
 30
0.0
 11
-31.688199999999998
 21
38.444400000000002
 31
0.0
  0
LINE
  5
61D
  8
_________1
 62
     7
 10
-31.688199999999998
 20
38.444400000000002
 30
0.0
 11
-30.547899999999998
 21
38.444400000000002
 31
0.0
  0
LINE
  5
61E
  8
_________1
 62
     7
 10
-30.348400000000002
 20
38.884
 30
0.0
 11
-30.348400000000002
 21
38.783799999999999
 31
0.0
  0
LINE
  5
61F
  8
_________1
 62
     7
 10
-30.348400000000002
 20
38.783799999999999
 30
0.0
 11
-30.4087
 21
38.684199999999997
 31
0.0
  0
LINE
  5
620
  8
_________1
 62
     7
 10
-33.048999999999999
 20
38.884
 30
0.0
 11
-33.028300000000002
 21
38.783799999999999
 31
0.0
  0
LINE
  5
621
  8
_________1
 62
     7
 10
-33.028300000000002
 20
38.783799999999999
 30
0.0
 11
-32.988700000000001
 21
38.684199999999997
 31
0.0
  0
LINE
  5
622
  8
_________1
 62
     7
 10
-33.048999999999999
 20
39.444899999999997
 30
0.0
 11
-30.348400000000002
 21
39.444899999999997
 31
0.0
  0
LINE
  5
623
  8
_________1
 62
     7
 10
-33.048999999999999
 20
39.444899999999997
 30
0.0
 11
-33.048999999999999
 21
38.884
 31
0.0
  0
LINE
  5
624
  8
_________1
 62
     7
 10
-30.348400000000002
 20
39.444899999999997
 30
0.0
 11
-30.348400000000002
 21
38.884
 31
0.0
  0
LINE
  5
625
  8
_________1
 62
     7
 10
-29.847799999999999
 20
35.743400000000001
 30
0.0
 11
-29.488099999999999
 21
35.543599999999998
 31
0.0
  0
LINE
  5
626
  8
_________1
 62
     7
 10
-33.5289
 20
35.743400000000001
 30
0.0
 11
-33.888199999999998
 21
35.543599999999998
 31
0.0
  0
LINE
  5
627
  8
_________1
 62
     7
 10
-32.988700000000001
 20
38.684199999999997
 30
0.0
 11
-32.848500000000001
 21
38.444400000000002
 31
0.0
  0
LINE
  5
628
  8
_________1
 62
     7
 10
-32.848500000000001
 20
36.843499999999999
 30
0.0
 11
-32.988700000000001
 21
36.504100000000001
 31
0.0
  0
LINE
  5
629
  8
_________1
 62
     7
 10
-30.4087
 20
38.684199999999997
 30
0.0
 11
-30.547899999999998
 21
38.444400000000002
 31
0.0
  0
LINE
  5
62A
  8
_________1
 62
     7
 10
-30.547899999999998
 20
36.843499999999999
 30
0.0
 11
-30.388000000000002
 21
36.504100000000001
 31
0.0
  0
LINE
  5
62B
  8
_________1
 62
     7
 10
-32.848500000000001
 20
38.444400000000002
 30
0.0
 11
-32.848500000000001
 21
36.843499999999999
 31
0.0
  0
LINE
  5
62C
  8
_________1
 62
     7
 10
-30.547899999999998
 20
38.444400000000002
 30
0.0
 11
-30.547899999999998
 21
36.843499999999999
 31
0.0
  0
LINE
  5
62D
  8
_________1
 62
     7
 10
-32.928400000000003
 20
35.843000000000011
 30
0.0
 11
-32.928400000000003
 21
35.743400000000001
 31
0.0
  0
LINE
  5
62E
  8
_________1
 62
     7
 10
-30.447900000000001
 20
35.843000000000011
 30
0.0
 11
-30.447900000000001
 21
35.743400000000001
 31
0.0
  0
LINE
  5
62F
  8
_________1
 62
     7
 10
-33.888199999999998
 20
33.442399999999999
 30
0.0
 11
-33.5289
 21
33.243699999999997
 31
0.0
  0
LINE
  5
630
  8
_________1
 62
     7
 10
-29.488099999999999
 20
33.442399999999999
 30
0.0
 11
-29.847799999999999
 21
33.243699999999997
 31
0.0
  0
LINE
  5
631
  8
_________1
 62
     7
 10
-28.590699999999998
 20
117.63800000000001
 30
0.0
 11
-28.590699999999998
 21
115.23699999999999
 31
0.0
  0
LINE
  5
632
  8
_________1
 62
     7
 10
-34.790500000000002
 20
117.63800000000001
 30
0.0
 11
-34.790500000000002
 21
115.23699999999999
 31
0.0
  0
LINE
  5
633
  8
_________1
 62
     7
 10
-28.390899999999998
 20
115.438
 30
0.0
 11
-34.990299999999998
 21
115.438
 31
0.0
  0
LINE
  5
634
  8
_________1
 62
     7
 10
-28.390899999999998
 20
115.438
 30
0.0
 11
-28.590699999999998
 21
115.23699999999999
 31
0.0
  0
LINE
  5
635
  8
_________1
 62
     7
 10
-28.590699999999998
 20
115.23699999999999
 30
0.0
 11
-34.790500000000002
 21
115.23699999999999
 31
0.0
  0
LINE
  5
636
  8
_________1
 62
     7
 10
-34.790500000000002
 20
115.23699999999999
 30
0.0
 11
-34.990299999999998
 21
115.438
 31
0.0
  0
LINE
  5
637
  8
_________1
 62
     7
 10
-34.990299999999998
 20
115.438
 30
0.0
 11
-34.990299999999998
 21
117.63800000000001
 31
0.0
  0
LINE
  5
638
  8
_________1
 62
     7
 10
-34.990299999999998
 20
117.63800000000001
 30
0.0
 11
-28.390899999999998
 21
117.63800000000001
 31
0.0
  0
LINE
  5
639
  8
_________1
 62
     7
 10
-28.390899999999998
 20
117.63800000000001
 30
0.0
 11
-28.390899999999998
 21
115.438
 31
0.0
  0
LINE
  5
63A
  8
_________1
 62
     7
 10
-28.590699999999998
 20
133.238
 30
0.0
 11
-28.590699999999998
 21
125.238
 31
0.0
  0
LINE
  5
63B
  8
_________1
 62
     7
 10
-34.790500000000002
 20
133.238
 30
0.0
 11
-34.790500000000002
 21
125.238
 31
0.0
  0
LINE
  5
63C
  8
_________1
 62
     7
 10
-28.390899999999998
 20
125.238
 30
0.0
 11
-34.990299999999998
 21
125.238
 31
0.0
  0
LINE
  5
63D
  8
_________1
 62
     7
 10
-34.990299999999998
 20
125.238
 30
0.0
 11
-34.990299999999998
 21
133.238
 31
0.0
  0
LINE
  5
63E
  8
_________1
 62
     7
 10
-34.990299999999998
 20
133.238
 30
0.0
 11
-28.390899999999998
 21
133.238
 31
0.0
  0
LINE
  5
63F
  8
_________1
 62
     7
 10
-28.390899999999998
 20
133.238
 30
0.0
 11
-28.390899999999998
 21
125.238
 31
0.0
  0
LINE
  5
640
  8
_________1
  6
AIGENLINE001
 62
     7
 10
79.451599999999999
 20
74.224699999999999
 30
0.0
 11
70.304500000000004
 21
88.038600000000002
 31
0.0
  0
LINE
  5
641
  8
_________1
 62
     7
 10
71.354600000000005
 20
39.444499999999998
 30
0.0
 11
71.354600000000005
 21
84.830799999999996
 31
0.0
  0
LINE
  5
642
  8
_________1
 62
     7
 10
69.254400000000004
 20
84.830799999999996
 30
0.0
 11
69.254400000000004
 21
39.444499999999998
 31
0.0
  0
LINE
  5
643
  8
_________1
  6
AIGENLINE001
 62
     7
 10
70.304500000000004
 20
88.038600000000002
 30
0.0
 11
70.304500000000004
 21
32.27320000000001
 31
0.0
  0
LINE
  5
644
  8
_________1
 62
     7
 10
70.304500000000004
 20
33.442399999999999
 30
0.0
 11
70.304500000000004
 21
35.5426
 31
0.0
  0
LINE
  5
645
  8
_________1
 62
     7
 10
68.404499999999999
 20
33.442399999999999
 30
0.0
 11
68.404499999999999
 21
35.5426
 31
0.0
  0
ARC
  5
646
  8
_________1
 62
     7
 10
72.812794999999994
 20
51.124937000000003
 30
0.0
 40
18.223706
 50
256.00145099999997
 51
257.12688200000002
  0
ARC
  5
647
  8
_________1
 62
     7
 10
69.542147
 20
36.924663000000002
 30
0.0
 40
3.651751
 50
257.51477199999999
 51
264.347465
  0
ARC
  5
648
  8
_________1
 62
     7
 10
69.368209999999991
 20
35.420853000000001
 30
0.0
 40
2.138266999999999
 50
265.01662800000003
 51
269.90542099999999
  0
ARC
  5
649
  8
_________1
 62
     7
 10
69.363846999999993
 20
35.327821
 30
0.0
 40
2.0452319999999991
 50
270.023347
 51
278.15184699999998
  0
ARC
  5
64A
  8
_________1
 62
     7
 10
69.204708999999994
 20
36.604703999999998
 30
0.0
 40
3.3318620000000001
 50
277.74724900000001
 51
281.36495500000001
  0
ARC
  5
64B
  8
_________1
 62
     7
 10
68.328117000000006
 20
40.849600000000002
 30
0.0
 40
7.6662970000000001
 50
281.53621399999997
 51
284.93972300000001
  0
ARC
  5
64C
  8
_________1
 62
     7
 10
69.032658999999995
 20
31.824482
 30
0.0
 40
3.9296179999999992
 50
71.115758
 51
79.997492000000008
  0
ARC
  5
64D
  8
_________1
 62
     7
 10
69.348640000000003
 20
33.430563999999997
 30
0.0
 40
2.2932909999999991
 50
80.802391
 51
89.599238999999983
  0
ARC
  5
64E
  8
_________1
 62
     7
 10
69.364407999999983
 20
33.399211000000001
 30
0.0
 40
2.3245879999999999
 50
89.993274999999997
 51
102.271546
  0
ARC
  5
64F
  8
_________1
 62
     7
 10
69.606967999999995
 20
32.081134000000013
 30
0.0
 40
3.664358
 50
101.597105
 51
109.15623600000001
  0
ARC
  5
650
  8
_________1
 62
     7
 10
74.805344999999988
 20
51.536338000000001
 30
0.0
 40
18.645282999999999
 50
256.03125399999999
 51
257.13267000000002
  0
ARC
  5
651
  8
_________1
 62
     7
 10
71.444055000000006
 20
36.932875000000003
 30
0.0
 40
3.660080999999999
 50
257.52045500000003
 51
264.33507700000001
  0
ARC
  5
652
  8
_________1
 62
     7
 10
71.268226999999996
 20
35.414343000000009
 30
0.0
 40
2.131756999999999
 50
265.00899900000002
 51
269.90419600000001
  0
ARC
  5
653
  8
_________1
 62
     7
 10
71.263829000000001
 20
35.328054999999999
 30
0.0
 40
2.0454659999999989
 50
270.02335900000003
 51
278.1513799999999
  0
ARC
  5
654
  8
_________1
 62
     7
 10
71.103960999999984
 20
36.610658999999998
 30
0.0
 40
3.3378629999999991
 50
277.74616900000001
 51
281.35873600000002
  0
ARC
  5
655
  8
_________1
 62
     7
 10
70.216561999999996
 20
40.910347999999999
 30
0.0
 40
7.7281440000000003
 50
281.53065900000001
 51
284.91119700000002
  0
LINE
  5
656
  8
_________1
 62
     7
 10
72.205200000000005
 20
33.442399999999999
 30
0.0
 11
72.205200000000005
 21
35.5426
 31
0.0
  0
ARC
  5
657
  8
_________1
 62
     7
 10
70.927346999999997
 20
31.798295
 30
0.0
 40
3.9563320000000002
 50
71.156503000000001
 51
79.987307999999999
  0
ARC
  5
658
  8
_________1
 62
     7
 10
71.248552000000004
 20
33.429265000000001
 30
0.0
 40
2.2945899999999999
 50
80.804929999999999
 51
89.597727000000006
  0
ARC
  5
659
  8
_________1
 62
     7
 10
71.264386000000002
 20
33.401694999999997
 30
0.0
 40
2.3221039999999991
 50
89.993183999999985
 51
102.27813500000001
  0
ARC
  5
65A
  8
_________1
 62
     7
 10
71.511510999999985
 20
32.063025000000003
 30
0.0
 40
3.6829610000000002
 50
101.60595000000001
 51
109.130809
  0
LINE
  5
65B
  8
_________1
 62
     7
 10
72.205200000000005
 20
33.282600000000002
 30
0.0
 11
72.205200000000005
 21
33.442399999999999
 31
0.0
  0
LINE
  5
65C
  8
_________1
 62
     7
 10
72.205200000000005
 20
35.5426
 30
0.0
 11
72.205200000000005
 21
35.723799999999997
 31
0.0
  0
LINE
  5
65D
  8
_________1
 62
     7
 10
68.404499999999999
 20
33.282600000000002
 30
0.0
 11
68.404499999999999
 21
33.442399999999999
 31
0.0
  0
LINE
  5
65E
  8
_________1
 62
     7
 10
68.404499999999999
 20
35.5426
 30
0.0
 11
68.404499999999999
 21
35.723799999999997
 31
0.0
  0
LINE
  5
65F
  8
_________1
 62
     7
 10
71.305000000000007
 20
35.863
 30
0.0
 11
70.304500000000004
 21
35.863
 31
0.0
  0
LINE
  5
660
  8
_________1
 62
     7
 10
70.304500000000004
 20
35.863
 30
0.0
 11
69.305099999999996
 21
35.863
 31
0.0
  0
LINE
  5
661
  8
_________1
 62
     7
 10
72.205200000000005
 20
33.282600000000002
 30
0.0
 11
72.144900000000007
 21
33.243299999999998
 31
0.0
  0
LINE
  5
662
  8
_________1
 62
     7
 10
72.144900000000007
 20
33.243299999999998
 30
0.0
 11
68.464500000000001
 21
33.243299999999998
 31
0.0
  0
LINE
  5
663
  8
_________1
 62
     7
 10
68.464500000000001
 20
33.243299999999998
 30
0.0
 11
68.404499999999999
 21
33.282600000000002
 31
0.0
  0
ARC
  5
664
  8
_________1
 62
     7
 10
72.186268999999996
 20
35.68827000000001
 30
0.0
 40
0.040248
 50
61.976429000000003
 51
93.704817000000006
  0
ARC
  5
665
  8
_________1
 62
     7
 10
72.022108000000003
 20
34.107543
 30
0.0
 40
1.628922999999999
 50
84.30789
 51
88.706835999999996
  0
ARC
  5
666
  8
_________1
 62
     7
 10
71.483035000000001
 20
17.904205999999999
 30
0.0
 40
17.841139999999999
 50
88.150409999999994
 51
89.592651000000004
  0
ARC
  5
667
  8
_________1
 62
     7
 10
70.637586999999996
 20
-70.364975999999999
 30
0.0
 40
106.11432600000001
 50
89.475002000000003
 51
90.088468000000006
  0
ARC
  5
668
  8
_________1
 62
     7
 10
71.059411999999995
 20
-485.41248100000001
 30
0.0
 40
521.16203299999995
 50
90.064380000000014
 51
90.285274999999999
  0
LINE
  5
669
  8
_________1
 62
     7
 10
68.464500000000001
 20
35.743099999999998
 30
0.0
 11
68.404499999999999
 21
35.723799999999997
 31
0.0
  0
LINE
  5
66A
  8
_________1
 62
     7
 10
71.544799999999995
 20
35.743099999999998
 30
0.0
 11
71.544799999999995
 21
35.843000000000011
 31
0.0
  0
LINE
  5
66B
  8
_________1
 62
     7
 10
71.544799999999995
 20
35.843000000000011
 30
0.0
 11
69.064300000000003
 21
35.843000000000011
 31
0.0
  0
LINE
  5
66C
  8
_________1
 62
     7
 10
69.064300000000003
 20
35.743099999999998
 30
0.0
 11
69.064300000000003
 21
35.843000000000011
 31
0.0
  0
LINE
  5
66D
  8
_________1
 62
     7
 10
69.305099999999996
 20
35.863
 30
0.0
 11
69.0047
 21
36.104100000000003
 31
0.0
  0
LINE
  5
66E
  8
_________1
 62
     7
 10
69.0047
 20
36.104100000000003
 30
0.0
 11
68.984300000000005
 21
36.503799999999998
 31
0.0
  0
LINE
  5
66F
  8
_________1
 62
     7
 10
71.625699999999995
 20
36.503799999999998
 30
0.0
 11
71.604699999999994
 21
36.104100000000003
 31
0.0
  0
LINE
  5
670
  8
_________1
 62
     7
 10
71.604699999999994
 20
36.104100000000003
 30
0.0
 11
71.305000000000007
 21
35.863
 31
0.0
  0
LINE
  5
671
  8
_________1
 62
     7
 10
71.464799999999997
 20
36.843499999999999
 30
0.0
 11
69.145200000000003
 21
36.843499999999999
 31
0.0
  0
LINE
  5
672
  8
_________1
 62
     7
 10
69.145200000000003
 20
36.843499999999999
 30
0.0
 11
68.984300000000005
 21
36.503799999999998
 31
0.0
  0
LINE
  5
673
  8
_________1
 62
     7
 10
71.625699999999995
 20
36.503799999999998
 30
0.0
 11
71.464799999999997
 21
36.843499999999999
 31
0.0
  0
LINE
  5
674
  8
_________1
 62
     7
 10
71.464799999999997
 20
38.444099999999999
 30
0.0
 11
69.145200000000003
 21
38.444099999999999
 31
0.0
  0
LINE
  5
675
  8
_________1
 62
     7
 10
69.145200000000003
 20
36.843499999999999
 30
0.0
 11
69.145200000000003
 21
38.444099999999999
 31
0.0
  0
LINE
  5
676
  8
_________1
 62
     7
 10
71.464799999999997
 20
36.843499999999999
 30
0.0
 11
71.464799999999997
 21
38.444099999999999
 31
0.0
  0
LINE
  5
677
  8
_________1
 62
     7
 10
69.145200000000003
 20
38.444099999999999
 30
0.0
 11
69.0047
 21
38.683799999999998
 31
0.0
  0
LINE
  5
678
  8
_________1
 62
     7
 10
71.604699999999994
 20
38.683799999999998
 30
0.0
 11
71.464799999999997
 21
38.444099999999999
 31
0.0
  0
LINE
  5
679
  8
_________1
 62
     7
 10
69.0047
 20
38.683799999999998
 30
0.0
 11
68.964399999999998
 21
38.783799999999999
 31
0.0
  0
LINE
  5
67A
  8
_________1
 62
     7
 10
68.964399999999998
 20
38.783799999999999
 30
0.0
 11
68.964399999999998
 21
38.883699999999997
 31
0.0
  0
ARC
  5
67B
  8
_________1
 62
     7
 10
71.128734999999992
 20
38.936456
 30
0.0
 40
0.5388430000000001
 50
332.043204
 51
354.377139
  0
LINE
  5
67C
  8
_________1
 62
     7
 10
71.665000000000006
 20
38.883699999999997
 30
0.0
 11
71.665000000000006
 21
39.444499999999998
 31
0.0
  0
LINE
  5
67D
  8
_________1
 62
     7
 10
71.665000000000006
 20
39.444499999999998
 30
0.0
 11
68.964399999999998
 21
39.444499999999998
 31
0.0
  0
LINE
  5
67E
  8
_________1
 62
     7
 10
68.964399999999998
 20
38.883699999999997
 30
0.0
 11
68.964399999999998
 21
39.444499999999998
 31
0.0
  0
LINE
  5
67F
  8
_________1
 62
     7
 10
62.891300000000001
 20
39.444499999999998
 30
0.0
 11
62.891300000000001
 21
84.830799999999996
 31
0.0
  0
LINE
  5
680
  8
_________1
 62
     7
 10
60.791200000000003
 20
84.830799999999996
 30
0.0
 11
60.791200000000003
 21
39.444499999999998
 31
0.0
  0
LINE
  5
681
  8
_________1
  6
AIGENLINE001
 62
     7
 10
61.841200000000001
 20
88.038600000000002
 30
0.0
 11
61.841200000000001
 21
32.27320000000001
 31
0.0
  0
LINE
  5
682
  8
_________1
 62
     7
 10
61.841200000000001
 20
33.442399999999999
 30
0.0
 11
61.841200000000001
 21
35.5426
 31
0.0
  0
LINE
  5
683
  8
_________1
 62
     7
 10
59.941299999999998
 20
33.442399999999999
 30
0.0
 11
59.941299999999998
 21
35.5426
 31
0.0
  0
ARC
  5
684
  8
_________1
 62
     7
 10
64.325108
 20
51.026932000000002
 30
0.0
 40
18.122706000000001
 50
256.00138500000003
 51
257.133353
  0
ARC
  5
685
  8
_________1
 62
     7
 10
61.079642000000007
 20
36.929175999999998
 30
0.0
 40
3.6563050000000001
 50
257.51959199999999
 51
264.34443199999998
  0
ARC
  5
686
  8
_________1
 62
     7
 10
60.904966999999999
 20
35.418616
 30
0.0
 40
2.136029999999999
 50
265.01400000000001
 51
269.90445099999999
  0
ARC
  5
687
  8
_________1
 62
     7
 10
60.900573000000001
 20
35.329917000000002
 30
0.0
 40
2.0473279999999989
 50
270.02328399999999
 51
278.14766500000002
  0
ARC
  5
688
  8
_________1
 62
     7
 10
60.74203
 20
36.601554
 30
0.0
 40
3.3286809999999991
 50
277.74696599999999
 51
281.36767300000002
  0
ARC
  5
689
  8
_________1
 62
     7
 10
59.864217000000011
 20
40.850436999999992
 30
0.0
 40
7.6672669999999989
 50
281.54044900000002
 51
284.9426259999999
  0
ARC
  5
68A
  8
_________1
 62
     7
 10
60.574957999999988
 20
31.846530999999999
 30
0.0
 40
3.9069519999999991
 50
71.088444999999993
 51
80.020506999999995
  0
ARC
  5
68B
  8
_________1
 62
     7
 10
60.88530999999999
 20
33.428777000000011
 30
0.0
 40
2.295078999999999
 50
80.805929000000006
 51
89.598193999999978
  0
ARC
  5
68C
  8
_________1
 62
     7
 10
60.901139000000001
 20
33.40155
 30
0.0
 40
2.3222489999999998
 50
89.993437
 51
102.277749
  0
ARC
  5
68D
  8
_________1
 62
     7
 10
61.146222999999999
 20
32.070442
 30
0.0
 40
3.6752879999999988
 50
101.598294
 51
109.13880399999999
  0
ARC
  5
68E
  8
_________1
 62
     7
 10
66.337279000000009
 20
51.517063
 30
0.0
 40
18.625422
 50
256.03124200000002
 51
257.13387999999998
  0
ARC
  5
68F
  8
_________1
 62
     7
 10
62.980656999999987
 20
36.932884000000001
 30
0.0
 40
3.6600609999999998
 50
257.52260699999999
 51
264.33985300000001
  0
ARC
  5
690
  8
_________1
 62
     7
 10
62.805275999999999
 20
35.417594000000001
 30
0.0
 40
2.135008
 50
265.01281499999999
 51
269.90488599999998
  0
ARC
  5
691
  8
_________1
 62
     7
 10
62.800897999999989
 20
35.327977000000011
 30
0.0
 40
2.0453879999999991
 50
270.02335499999998
 51
278.15153600000002
  0
ARC
  5
692
  8
_________1
 62
     7
 10
62.641325000000002
 20
36.608066999999998
 30
0.0
 40
3.3352539999999991
 50
277.74706700000002
 51
281.36173100000002
  0
ARC
  5
693
  8
_________1
 62
     7
 10
61.759414
 20
40.879897
 30
0.0
 40
7.6971419999999986
 50
281.53343699999999
 51
284.92544900000001
  0
LINE
  5
694
  8
_________1
 62
     7
 10
63.741900000000001
 20
33.442399999999999
 30
0.0
 11
63.741900000000001
 21
35.5426
 31
0.0
  0
ARC
  5
695
  8
_________1
 62
     7
 10
62.469304000000001
 20
31.819409000000011
 30
0.0
 40
3.9346610000000002
 50
71.129315000000005
 51
80.006418999999994
  0
ARC
  5
696
  8
_________1
 62
     7
 10
62.785496999999999
 20
33.429923000000002
 30
0.0
 40
2.2939329999999991
 50
80.803469000000007
 51
89.594491000000005
  0
ARC
  5
697
  8
_________1
 62
     7
 10
62.801456000000002
 20
33.40129000000001
 30
0.0
 40
2.3225090000000002
 50
89.993199000000004
 51
102.27705899999999
  0
ARC
  5
698
  8
_________1
 62
     7
 10
63.050181999999992
 20
32.054195
 30
0.0
 40
3.6919409999999999
 50
101.60339
 51
109.114441
  0
LINE
  5
699
  8
_________1
 62
     7
 10
63.741900000000001
 20
33.282600000000002
 30
0.0
 11
63.741900000000001
 21
33.442399999999999
 31
0.0
  0
LINE
  5
69A
  8
_________1
 62
     7
 10
63.741900000000001
 20
35.5426
 30
0.0
 11
63.741900000000001
 21
35.723799999999997
 31
0.0
  0
LINE
  5
69B
  8
_________1
 62
     7
 10
59.941299999999998
 20
33.282600000000002
 30
0.0
 11
59.941299999999998
 21
33.442399999999999
 31
0.0
  0
LINE
  5
69C
  8
_________1
 62
     7
 10
59.941299999999998
 20
35.5426
 30
0.0
 11
59.941299999999998
 21
35.723799999999997
 31
0.0
  0
LINE
  5
69D
  8
_________1
 62
     7
 10
62.841700000000003
 20
35.863
 30
0.0
 11
61.841200000000001
 21
35.863
 31
0.0
  0
LINE
  5
69E
  8
_________1
 62
     7
 10
61.841200000000001
 20
35.863
 30
0.0
 11
60.842100000000002
 21
35.863
 31
0.0
  0
LINE
  5
69F
  8
_________1
 62
     7
 10
63.741900000000001
 20
33.282600000000002
 30
0.0
 11
63.681999999999988
 21
33.243299999999998
 31
0.0
  0
LINE
  5
6A0
  8
_________1
 62
     7
 10
63.681999999999988
 20
33.243299999999998
 30
0.0
 11
60.0015
 21
33.243299999999998
 31
0.0
  0
LINE
  5
6A1
  8
_________1
 62
     7
 10
60.0015
 20
33.243299999999998
 30
0.0
 11
59.941299999999998
 21
33.282600000000002
 31
0.0
  0
ARC
  5
6A2
  8
_________1
 62
     7
 10
63.723038000000003
 20
35.688450000000003
 30
0.0
 40
0.040069
 50
61.910291999999998
 51
93.729551999999984
  0
ARC
  5
6A3
  8
_________1
 62
     7
 10
63.559004999999999
 20
34.110078000000001
 30
0.0
 40
1.6263860000000001
 50
84.303734999999989
 51
88.707080999999988
  0
ARC
  5
6A4
  8
_________1
 62
     7
 10
63.020032999999991
 20
17.913974
 30
0.0
 40
17.831372000000002
 50
88.149927000000005
 51
89.592646999999999
  0
ARC
  5
6A5
  8
_________1
 62
     7
 10
62.174611999999989
 20
-70.343406999999999
 30
0.0
 40
106.09275599999999
 50
89.474947999999983
 51
90.088484999999991
  0
ARC
  5
6A6
  8
_________1
 62
     7
 10
62.596481999999988
 20
-485.40853099999998
 30
0.0
 40
521.15808300000003
 50
90.064384999999987
 51
90.285277000000008
  0
LINE
  5
6A7
  8
_________1
 62
     7
 10
60.0015
 20
35.743099999999998
 30
0.0
 11
59.941299999999998
 21
35.723799999999997
 31
0.0
  0
LINE
  5
6A8
  8
_________1
 62
     7
 10
63.081499999999998
 20
35.743099999999998
 30
0.0
 11
63.081499999999998
 21
35.843000000000011
 31
0.0
  0
LINE
  5
6A9
  8
_________1
 62
     7
 10
63.081499999999998
 20
35.843000000000011
 30
0.0
 11
60.601000000000013
 21
35.843000000000011
 31
0.0
  0
LINE
  5
6AA
  8
_________1
 62
     7
 10
60.601000000000013
 20
35.743099999999998
 30
0.0
 11
60.601000000000013
 21
35.843000000000011
 31
0.0
  0
LINE
  5
6AB
  8
_________1
 62
     7
 10
60.842100000000002
 20
35.863
 30
0.0
 11
60.541699999999999
 21
36.104100000000003
 31
0.0
  0
LINE
  5
6AC
  8
_________1
 62
     7
 10
60.541699999999999
 20
36.104100000000003
 30
0.0
 11
60.52109999999999
 21
36.503799999999998
 31
0.0
  0
LINE
  5
6AD
  8
_________1
 62
     7
 10
63.16279999999999
 20
36.503799999999998
 30
0.0
 11
63.141800000000003
 21
36.104100000000003
 31
0.0
  0
LINE
  5
6AE
  8
_________1
 62
     7
 10
63.141800000000003
 20
36.104100000000003
 30
0.0
 11
62.841700000000003
 21
35.863
 31
0.0
  0
LINE
  5
6AF
  8
_________1
 62
     7
 10
63.0015
 20
36.843499999999999
 30
0.0
 11
60.682299999999991
 21
36.843499999999999
 31
0.0
  0
LINE
  5
6B0
  8
_________1
 62
     7
 10
60.682299999999991
 20
36.843499999999999
 30
0.0
 11
60.52109999999999
 21
36.503799999999998
 31
0.0
  0
LINE
  5
6B1
  8
_________1
 62
     7
 10
63.16279999999999
 20
36.503799999999998
 30
0.0
 11
63.0015
 21
36.843499999999999
 31
0.0
  0
LINE
  5
6B2
  8
_________1
 62
     7
 10
63.0015
 20
38.444099999999999
 30
0.0
 11
60.682299999999991
 21
38.444099999999999
 31
0.0
  0
LINE
  5
6B3
  8
_________1
 62
     7
 10
60.682299999999991
 20
36.843499999999999
 30
0.0
 11
60.682299999999991
 21
38.444099999999999
 31
0.0
  0
LINE
  5
6B4
  8
_________1
 62
     7
 10
63.0015
 20
36.843499999999999
 30
0.0
 11
63.0015
 21
38.444099999999999
 31
0.0
  0
LINE
  5
6B5
  8
_________1
 62
     7
 10
60.682299999999991
 20
38.444099999999999
 30
0.0
 11
60.541699999999999
 21
38.683799999999998
 31
0.0
  0
LINE
  5
6B6
  8
_________1
 62
     7
 10
63.141800000000003
 20
38.683799999999998
 30
0.0
 11
63.0015
 21
38.444099999999999
 31
0.0
  0
LINE
  5
6B7
  8
_________1
 62
     7
 10
60.541699999999999
 20
38.683799999999998
 30
0.0
 11
60.50139999999999
 21
38.783799999999999
 31
0.0
  0
LINE
  5
6B8
  8
_________1
 62
     7
 10
60.50139999999999
 20
38.783799999999999
 30
0.0
 11
60.50139999999999
 21
38.883699999999997
 31
0.0
  0
ARC
  5
6B9
  8
_________1
 62
     7
 10
62.675270999999988
 20
38.932692000000003
 30
0.0
 40
0.528717
 50
331.92257600000011
 51
354.67893900000001
  0
LINE
  5
6BA
  8
_________1
 62
     7
 10
63.201700000000002
 20
38.883699999999997
 30
0.0
 11
63.201700000000002
 21
39.444499999999998
 31
0.0
  0
LINE
  5
6BB
  8
_________1
 62
     7
 10
63.201700000000002
 20
39.444499999999998
 30
0.0
 11
60.50139999999999
 21
39.444499999999998
 31
0.0
  0
LINE
  5
6BC
  8
_________1
 62
     7
 10
60.50139999999999
 20
38.883699999999997
 30
0.0
 11
60.50139999999999
 21
39.444499999999998
 31
0.0
  0
LINE
  5
6BD
  8
_________1
  6
AIGENLINE001
 62
     7
 10
77.0518
 20
74.22399999999999
 30
0.0
 11
61.841200000000001
 21
88.038600000000002
 31
0.0
  0
LINE
  5
6BE
  8
_________1
 62
     7
 10
78.401600000000002
 20
77.885499999999993
 30
0.0
 11
78.401600000000002
 21
115.23699999999999
 31
0.0
  0
LINE
  5
6BF
  8
_________1
 62
     7
 10
80.501699999999985
 20
77.885499999999993
 30
0.0
 11
80.501699999999985
 21
115.23699999999999
 31
0.0
  0
LINE
  5
6C0
  8
_________1
 62
     7
 10
76.0017
 20
77.885499999999993
 30
0.0
 11
76.0017
 21
115.23699999999999
 31
0.0
  0
LINE
  5
6C1
  8
_________1
 62
     7
 10
78.101799999999983
 20
77.885499999999993
 30
0.0
 11
78.101799999999983
 21
115.23699999999999
 31
0.0
  0
INSERT
  5
6C2
  8
_________1
 62
     7
  2
AIGNBL02010027
 10
0.0
 20
0.0
 30
0.0
  0
LINE
  5
6C3
  8
_________1
 62
     7
 10
59.241199999999999
 20
33.237499999999997
 30
0.0
 11
53.596400000000003
 21
33.237499999999997
 31
0.0
  0
LINE
  5
6C4
  8
_________1
  6
AIGENLINE001
 62
     7
 10
77.0518
 20
134.45400000000001
 30
0.0
 11
77.0518
 21
74.22399999999999
 31
0.0
  0
LINE
  5
6C5
  8
_________1
  6
AIGENLINE001
 62
     7
 10
79.451999999999984
 20
134.45400000000001
 30
0.0
 11
79.451999999999984
 21
74.22399999999999
 31
0.0
  0
LINE
  5
6C6
  8
_________1
 62
     7
 10
81.352000000000004
 20
117.637
 30
0.0
 11
81.352000000000004
 21
115.23699999999999
 31
0.0
  0
LINE
  5
6C7
  8
_________1
 62
     7
 10
75.151799999999994
 20
117.637
 30
0.0
 11
75.151799999999994
 21
115.23699999999999
 31
0.0
  0
LINE
  5
6C8
  8
_________1
 62
     7
 10
81.551400000000015
 20
115.438
 30
0.0
 11
74.952299999999994
 21
115.438
 31
0.0
  0
LINE
  5
6C9
  8
_________1
 62
     7
 10
81.551400000000015
 20
115.438
 30
0.0
 11
81.352000000000004
 21
115.23699999999999
 31
0.0
  0
LINE
  5
6CA
  8
_________1
 62
     7
 10
81.352000000000004
 20
115.23699999999999
 30
0.0
 11
75.151799999999994
 21
115.23699999999999
 31
0.0
  0
LINE
  5
6CB
  8
_________1
 62
     7
 10
75.151799999999994
 20
115.23699999999999
 30
0.0
 11
74.952299999999994
 21
115.438
 31
0.0
  0
LINE
  5
6CC
  8
_________1
 62
     7
 10
74.952299999999994
 20
115.438
 30
0.0
 11
74.952299999999994
 21
117.637
 31
0.0
  0
LINE
  5
6CD
  8
_________1
 62
     7
 10
74.952299999999994
 20
117.637
 30
0.0
 11
81.551400000000015
 21
117.637
 31
0.0
  0
LINE
  5
6CE
  8
_________1
 62
     7
 10
81.551400000000015
 20
117.637
 30
0.0
 11
81.551400000000015
 21
115.438
 31
0.0
  0
LINE
  5
6CF
  8
_________1
 62
     7
 10
81.352000000000004
 20
133.238
 30
0.0
 11
81.352000000000004
 21
125.238
 31
0.0
  0
LINE
  5
6D0
  8
_________1
 62
     7
 10
75.151799999999994
 20
133.238
 30
0.0
 11
75.151799999999994
 21
125.238
 31
0.0
  0
LINE
  5
6D1
  8
_________1
 62
     7
 10
81.551400000000015
 20
125.238
 30
0.0
 11
74.952299999999994
 21
125.238
 31
0.0
  0
LINE
  5
6D2
  8
_________1
 62
     7
 10
74.952299999999994
 20
125.238
 30
0.0
 11
74.952299999999994
 21
133.238
 31
0.0
  0
LINE
  5
6D3
  8
_________1
 62
     7
 10
74.952299999999994
 20
133.238
 30
0.0
 11
81.551400000000015
 21
133.238
 31
0.0
  0
LINE
  5
6D4
  8
_________1
 62
     7
 10
81.551400000000015
 20
133.238
 30
0.0
 11
81.551400000000015
 21
125.238
 31
0.0
  0
INSERT
  5
6D5
  8
_________1
 62
     7
  2
AIGNBL0201002B
 10
0.0
 20
0.0
 30
0.0
  0
LINE
  5
6D6
  8
_________1
 62
     7
 10
71.749399999999994
 20
125.238
 30
0.0
 11
64.673500000000004
 21
125.238
 31
0.0
  0
ARC
  5
6D7
  8
_________1
 62
     7
 10
78.25179
 20
261.89876099999998
 30
0.0
 40
3.4999799999999999
 50
179.99856
 51
269.99860999999999
  0
ARC
  5
6D8
  8
_________1
 62
     7
 10
78.251617999999993
 20
261.89876199999998
 30
0.0
 40
3.4999809999999991
 50
270.00143000000003
 51
0.0014
  0
ARC
  5
6D9
  8
_________1
 62
     7
 10
78.251617999999993
 20
261.898934
 30
0.0
 40
3.4999809999999991
 50
359.99860000000001
 51
89.998570000000001
  0
ARC
  5
6DA
  8
_________1
 62
     7
 10
78.251790999999983
 20
261.898934
 30
0.0
 40
3.4999809999999991
 50
90.001410000000007
 51
180.00142
  0
INSERT
  5
6DB
  8
_________1
 62
     7
  2
AIGNBL0201002F
 10
0.0
 20
0.0
 30
0.0
  0
INSERT
  5
6DC
  8
_________1
 62
     7
  2
AIGNBL02010030
 10
0.0
 20
0.0
 30
0.0
  0
INSERT
  5
6DD
  8
_________1
 62
     7
  2
AIGNBL02010031
 10
0.0
 20
0.0
 30
0.0
  0
INSERT
  5
6DE
  8
_________1
 62
     7
  2
AIGNBL02010034
 10
0.0
 20
0.0
 30
0.0
  0
INSERT
  5
6DF
  8
_________1
 62
     7
  2
AIGNBL02010037
 10
0.0
 20
0.0
 30
0.0
  0
INSERT
  5
6E0
  8
_________1
 62
     7
  2
AIGNBL02010038
 10
0.0
 20
0.0
 30
0.0
  0
INSERT
  5
6E1
  8
_________1
 62
     7
  2
AIGNBL02010039
 10
0.0
 20
0.0
 30
0.0
  0
INSERT
  5
6E2
  8
_________1
 62
     7
  2
AIGNBL0201003A
 10
0.0
 20
0.0
 30
0.0
  0
INSERT
  5
6E3
  8
_________1
 62
     7
  2
AIGNBL0201003B
 10
0.0
 20
0.0
 30
0.0
  0
INSERT
  5
6E4
  8
_________1
 62
     7
  2
AIGNBL0201003C
 10
0.0
 20
0.0
 30
0.0
  0
INSERT
  5
6E5
  8
_________1
 62
     7
  2
AIGNBL0201003D
 10
0.0
 20
0.0
 30
0.0
  0
INSERT
  5
6E6
  8
_________1
 62
     7
  2
AIGNBL0201003E
 10
0.0
 20
0.0
 30
0.0
  0
INSERT
  5
6E7
  8
_________1
 62
     7
  2
AIGNBL0201003F
 10
0.0
 20
0.0
 30
0.0
  0
INSERT
  5
6E8
  8
_________1
 62
     7
  2
AIGNBL02010040
 10
0.0
 20
0.0
 30
0.0
  0
INSERT
  5
6E9
  8
_________1
 62
     7
  2
AIGNBL02010041
 10
0.0
 20
0.0
 30
0.0
  0
INSERT
  5
6EA
  8
_________1
 62
     7
  2
AIGNBL02010042
 10
0.0
 20
0.0
 30
0.0
  0
INSERT
  5
6EB
  8
_________1
 62
     7
  2
AIGNBL02010043
 10
0.0
 20
0.0
 30
0.0
  0
INSERT
  5
6EC
  8
_________1
 62
     7
  2
AIGNBL02010044
 10
0.0
 20
0.0
 30
0.0
  0
INSERT
  5
6ED
  8
_________1
 62
     7
  2
AIGNBL02010045
 10
0.0
 20
0.0
 30
0.0
  0
INSERT
  5
6EE
  8
_________1
 62
     7
  2
AIGNBL02010046
 10
0.0
 20
0.0
 30
0.0
  0
INSERT
  5
6EF
  8
_________1
 62
     7
  2
AIGNBL02010047
 10
0.0
 20
0.0
 30
0.0
  0
INSERT
  5
6F0
  8
_________1
 62
     7
  2
AIGNBL02010048
 10
0.0
 20
0.0
 30
0.0
  0
INSERT
  5
6F1
  8
_________1
 62
     7
  2
AIGNBL02010049
 10
0.0
 20
0.0
 30
0.0
  0
INSERT
  5
6F2
  8
_________1
 62
     7
  2
AIGNBL0201004A
 10
0.0
 20
0.0
 30
0.0
  0
INSERT
  5
6F3
  8
_________1
 62
     7
  2
AIGNBL0201004B
 10
0.0
 20
0.0
 30
0.0
  0
INSERT
  5
6F4
  8
_________1
 62
     7
  2
AIGNBL0201004C
 10
0.0
 20
0.0
 30
0.0
  0
INSERT
  5
6F5
  8
_________1
 62
     7
  2
AIGNBL0201004D
 10
0.0
 20
0.0
 30
0.0
  0
INSERT
  5
6F6
  8
_________1
 62
     7
  2
AIGNBL0201004E
 10
0.0
 20
0.0
 30
0.0
  0
INSERT
  5
6F7
  8
_________1
 62
     7
  2
AIGNBL0201004F
 10
0.0
 20
0.0
 30
0.0
  0
INSERT
  5
6F8
  8
_________1
 62
     7
  2
AIGNBL02010050
 10
0.0
 20
0.0
 30
0.0
  0
INSERT
  5
6F9
  8
_________1
 62
     7
  2
AIGNBL02010051
 10
0.0
 20
0.0
 30
0.0
  0
INSERT
  5
6FA
  8
_________1
 62
     7
  2
AIGNBL02010052
 10
0.0
 20
0.0
 30
0.0
  0
INSERT
  5
6FB
  8
_________1
 62
     7
  2
AIGNBL02010053
 10
0.0
 20
0.0
 30
0.0
  0
INSERT
  5
6FC
  8
_________1
 62
     7
  2
AIGNBL02010054
 10
0.0
 20
0.0
 30
0.0
  0
INSERT
  5
6FD
  8
_________1
 62
     7
  2
AIGNBL02010055
 10
0.0
 20
0.0
 30
0.0
  0
INSERT
  5
6FE
  8
_________1
 62
     7
  2
AIGNBL02010056
 10
0.0
 20
0.0
 30
0.0
  0
INSERT
  5
6FF
  8
_________1
 62
     7
  2
AIGNBL02010057
 10
0.0
 20
0.0
 30
0.0
  0
INSERT
  5
700
  8
_________1
 62
     7
  2
AIGNBL02010058
 10
0.0
 20
0.0
 30
0.0
  0
INSERT
  5
701
  8
_________1
 62
     7
  2
AIGNBL02010059
 10
0.0
 20
0.0
 30
0.0
  0
INSERT
  5
702
  8
_________1
 62
     7
  2
AIGNBL0201005A
 10
0.0
 20
0.0
 30
0.0
  0
INSERT
  5
703
  8
_________1
 62
     7
  2
AIGNBL0201005B
 10
0.0
 20
0.0
 30
0.0
  0
INSERT
  5
704
  8
_________1
 62
     7
  2
AIGNBL0201005C
 10
0.0
 20
0.0
 30
0.0
  0
INSERT
  5
705
  8
_________1
 62
     7
  2
AIGNBL0201005D
 10
0.0
 20
0.0
 30
0.0
  0
INSERT
  5
706
  8
_________1
 62
     7
  2
AIGNBL0201005E
 10
0.0
 20
0.0
 30
0.0
  0
INSERT
  5
707
  8
_________1
 62
     7
  2
AIGNBL0201005F
 10
0.0
 20
0.0
 30
0.0
  0
INSERT
  5
708
  8
_________1
 62
     7
  2
AIGNBL02010060
 10
0.0
 20
0.0
 30
0.0
  0
INSERT
  5
709
  8
_________1
 62
     7
  2
AIGNBL02010061
 10
0.0
 20
0.0
 30
0.0
  0
INSERT
  5
70A
  8
_________1
 62
     7
  2
AIGNBL02010062
 10
0.0
 20
0.0
 30
0.0
  0
INSERT
  5
70B
  8
_________1
 62
     7
  2
AIGNBL02010063
 10
0.0
 20
0.0
 30
0.0
  0
INSERT
  5
70C
  8
_________1
 62
     7
  2
AIGNBL02010064
 10
0.0
 20
0.0
 30
0.0
  0
INSERT
  5
70D
  8
_________1
 62
     7
  2
AIGNBL02010065
 10
0.0
 20
0.0
 30
0.0
  0
INSERT
  5
70E
  8
_________1
 62
     7
  2
AIGNBL02010066
 10
0.0
 20
0.0
 30
0.0
  0
INSERT
  5
70F
  8
_________1
 62
     7
  2
AIGNBL02010067
 10
0.0
 20
0.0
 30
0.0
  0
INSERT
  5
710
  8
_________1
 62
     7
  2
AIGNBL02010068
 10
0.0
 20
0.0
 30
0.0
  0
INSERT
  5
711
  8
_________1
 62
     7
  2
AIGNBL02010069
 10
0.0
 20
0.0
 30
0.0
  0
INSERT
  5
712
  8
_________1
 62
     7
  2
AIGNBL0201006C
 10
0.0
 20
0.0
 30
0.0
  0
INSERT
  5
713
  8
_________1
 62
     7
  2
AIGNBL0201006D
 10
0.0
 20
0.0
 30
0.0
  0
INSERT
  5
714
  8
_________1
 62
     7
  2
AIGNBL0201006E
 10
0.0
 20
0.0
 30
0.0
  0
INSERT
  5
715
  8
_________1
 62
     7
  2
AIGNBL0201006F
 10
0.0
 20
0.0
 30
0.0
  0
INSERT
  5
716
  8
_________1
 62
     7
  2
AIGNBL02010070
 10
0.0
 20
0.0
 30
0.0
  0
INSERT
  5
717
  8
_________1
 62
     7
  2
AIGNBL02010071
 10
0.0
 20
0.0
 30
0.0
  0
INSERT
  5
718
  8
_________1
 62
     7
  2
AIGNBL02010072
 10
0.0
 20
0.0
 30
0.0
  0
INSERT
  5
719
  8
_________1
 62
     7
  2
AIGNBL02010073
 10
0.0
 20
0.0
 30
0.0
  0
INSERT
  5
71A
  8
_________1
 62
     7
  2
AIGNBL02010074
 10
0.0
 20
0.0
 30
0.0
  0
INSERT
  5
71B
  8
_________1
 62
     7
  2
AIGNBL02010075
 10
0.0
 20
0.0
 30
0.0
  0
INSERT
  5
71C
  8
_________1
 62
     7
  2
AIGNBL02010076
 10
0.0
 20
0.0
 30
0.0
  0
INSERT
  5
71D
  8
_________1
 62
     7
  2
AIGNBL02010077
 10
0.0
 20
0.0
 30
0.0
  0
INSERT
  5
71E
  8
_________1
 62
     7
  2
AIGNBL02010078
 10
0.0
 20
0.0
 30
0.0
  0
INSERT
  5
71F
  8
_________1
 62
     7
  2
AIGNBL02010079
 10
0.0
 20
0.0
 30
0.0
  0
INSERT
  5
720
  8
_________1
 62
     7
  2
AIGNBL0201007A
 10
0.0
 20
0.0
 30
0.0
  0
INSERT
  5
721
  8
_________1
 62
     7
  2
AIGNBL0201007B
 10
0.0
 20
0.0
 30
0.0
  0
INSERT
  5
722
  8
_________1
 62
     7
  2
AIGNBL0201007C
 10
0.0
 20
0.0
 30
0.0
  0
INSERT
  5
723
  8
_________1
 62
     7
  2
AIGNBL0201007D
 10
0.0
 20
0.0
 30
0.0
  0
INSERT
  5
724
  8
_________1
 62
     7
  2
AIGNBL0201007E
 10
0.0
 20
0.0
 30
0.0
  0
INSERT
  5
725
  8
_________1
 62
     7
  2
AIGNBL0201007F
 10
0.0
 20
0.0
 30
0.0
  0
INSERT
  5
726
  8
_________1
 62
     7
  2
AIGNBL02010080
 10
0.0
 20
0.0
 30
0.0
  0
INSERT
  5
727
  8
_________1
 62
     7
  2
AIGNBL02010081
 10
0.0
 20
0.0
 30
0.0
  0
INSERT
  5
728
  8
_________1
 62
     7
  2
AIGNBL02010082
 10
0.0
 20
0.0
 30
0.0
  0
INSERT
  5
729
  8
_________1
 62
     7
  2
AIGNBL02010083
 10
0.0
 20
0.0
 30
0.0
  0
INSERT
  5
72A
  8
_________1
 62
     7
  2
AIGNBL02010084
 10
0.0
 20
0.0
 30
0.0
  0
INSERT
  5
72B
  8
_________1
 62
     7
  2
AIGNBL02010085
 10
0.0
 20
0.0
 30
0.0
  0
INSERT
  5
72C
  8
_________1
 62
     7
  2
AIGNBL02010086
 10
0.0
 20
0.0
 30
0.0
  0
INSERT
  5
72D
  8
_________1
 62
     7
  2
AIGNBL02010087
 10
0.0
 20
0.0
 30
0.0
  0
INSERT
  5
72E
  8
_________1
 62
     7
  2
AIGNBL02010088
 10
0.0
 20
0.0
 30
0.0
  0
INSERT
  5
72F
  8
_________1
 62
     7
  2
AIGNBL02010089
 10
0.0
 20
0.0
 30
0.0
  0
INSERT
  5
730
  8
_________1
 62
     7
  2
AIGNBL0201008A
 10
0.0
 20
0.0
 30
0.0
  0
INSERT
  5
731
  8
_________1
 62
     7
  2
AIGNBL0201008B
 10
0.0
 20
0.0
 30
0.0
  0
INSERT
  5
732
  8
_________1
 62
     7
  2
AIGNBL0201008C
 10
0.0
 20
0.0
 30
0.0
  0
LINE
  5
733
  8
_________1
 62
     7
 10
-38.297600000000003
 20
157.93799999999999
 30
0.0
 11
-44.3583
 21
157.93799999999999
 31
0.0
  0
LINE
  5
734
  8
_________1
 62
     7
 10
-38.297600000000003
 20
148.53800000000001
 30
0.0
 11
-44.3583
 21
148.53800000000001
 31
0.0
  0
INSERT
  5
735
  8
_________1
 62
     7
  2
AIGNBL0201008D
 10
0.0
 20
0.0
 30
0.0
  0
INSERT
  5
736
  8
_________1
 62
     7
  2
AIGNBL0201008E
 10
0.0
 20
0.0
 30
0.0
  0
INSERT
  5
737
  8
_________1
 62
     7
  2
AIGNBL0201008F
 10
0.0
 20
0.0
 30
0.0
  0
INSERT
  5
738
  8
_________1
 62
     7
  2
AIGNBL02010090
 10
0.0
 20
0.0
 30
0.0
  0
INSERT
  5
739
  8
_________1
 62
     7
  2
AIGNBL02010091
 10
0.0
 20
0.0
 30
0.0
  0
LINE
  5
73A
  8
_________1
 62
     7
 10
75.851799999999997
 20
179.19399999999999
 30
0.0
 11
80.651600000000002
 21
179.19399999999999
 31
0.0
  0
INSERT
  5
73B
  8
_________1
 62
     7
  2
AIGNBL02010092
 10
0.0
 20
0.0
 30
0.0
  0
INSERT
  5
73C
  8
_________1
 62
     7
  2
AIGNBL02010093
 10
0.0
 20
0.0
 30
0.0
  0
LINE
  5
73D
  8
_________1
 62
     7
 10
105.108
 20
133.238
 30
0.0
 11
18.4803
 21
133.238
 31
0.0
  0
LINE
  5
73E
  8
_________1
 62
     7
 10
39.823099999999997
 20
198.03800000000001
 30
0.0
 11
18.4803
 21
198.03800000000001
 31
0.0
  0
LINE
  5
73F
  8
_________1
 62
     7
 10
32.555300000000003
 20
182.49100000000001
 30
0.0
 11
26.259699999999999
 21
182.49100000000001
 31
0.0
  0
INSERT
  5
740
  8
_________1
 62
     7
  2
AIGNBL02010094
 10
0.0
 20
0.0
 30
0.0
  0
LINE
  5
741
  8
_________1
 62
     7
 10
-11.850199999999999
 20
170.738
 30
0.0
 11
4.0893499999999987
 21
170.738
 31
0.0
  0
INSERT
  5
742
  8
_________1
 62
     7
  2
AIGNBL02010095
 10
0.0
 20
0.0
 30
0.0
  0
INSERT
  5
743
  8
_________1
 62
     7
  2
AIGNBL02010096
 10
0.0
 20
0.0
 30
0.0
  0
INSERT
  5
744
  8
_________1
 62
     7
  2
AIGNBL02010097
 10
0.0
 20
0.0
 30
0.0
  0
INSERT
  5
745
  8
_________1
 62
     7
  2
AIGNBL02010098
 10
0.0
 20
0.0
 30
0.0
  0
INSERT
  5
746
  8
_________1
 62
     7
  2
AIGNBL02010099
 10
0.0
 20
0.0
 30
0.0
  0
INSERT
  5
747
  8
_________1
 62
     7
  2
AIGNBL0201009A
 10
0.0
 20
0.0
 30
0.0
  0
INSERT
  5
748
  8
_________1
 62
     7
  2
AIGNBL0201009B
 10
0.0
 20
0.0
 30
0.0
  0
INSERT
  5
749
  8
_________1
 62
     7
  2
AIGNBL0201009C
 10
0.0
 20
0.0
 30
0.0
  0
INSERT
  5
74A
  8
_________1
 62
     7
  2
AIGNBL0201009D
 10
0.0
 20
0.0
 30
0.0
  0
INSERT
  5
74B
  8
_________1
 62
     7
  2
AIGNBL0201009E
 10
0.0
 20
0.0
 30
0.0
  0
INSERT
  5
74C
  8
_________1
 62
     7
  2
AIGNBL0201009F
 10
0.0
 20
0.0
 30
0.0
  0
INSERT
  5
74D
  8
_________1
 62
     7
  2
AIGNBL020100A0
 10
0.0
 20
0.0
 30
0.0
  0
INSERT
  5
74E
  8
_________1
 62
     7
  2
AIGNBL020100A1
 10
0.0
 20
0.0
 30
0.0
  0
INSERT
  5
74F
  8
_________1
 62
     7
  2
AIGNBL020100A2
 10
0.0
 20
0.0
 30
0.0
  0
INSERT
  5
750
  8
_________1
 62
     7
  2
AIGNBL020100A3
 10
0.0
 20
0.0
 30
0.0
  0
INSERT
  5
751
  8
_________1
 62
     7
  2
AIGNBL020100A4
 10
0.0
 20
0.0
 30
0.0
  0
LINE
  5
752
  8
_________1
  6
AIGENLINE001
 62
     7
 10
-11.2593
 20
153.238
 30
0.0
 11
-38.342399999999998
 21
153.238
 31
0.0
  0
INSERT
  5
753
  8
_________1
 62
     7
  2
AIGNBL020100A5
 10
0.0
 20
0.0
 30
0.0
  0
LINE
  5
754
  8
_________1
 62
     7
 10
-10.5593
 20
153.238
 30
0.0
 11
-3.0985399999999998
 21
153.238
 31
0.0
  0
INSERT
  5
755
  8
_________1
 62
     7
  2
AIGNBL020100A6
 10
0.0
 20
0.0
 30
0.0
  0
INSERT
  5
756
  8
_________1
 62
     7
  2
AIGNBL020100A7
 10
0.0
 20
0.0
 30
0.0
  0
INSERT
  5
757
  8
_________1
 62
     7
  2
AIGNBL020100A8
 10
0.0
 20
0.0
 30
0.0
  0
INSERT
  5
758
  8
_________1
 62
     7
  2
AIGNBL020100A9
 10
0.0
 20
0.0
 30
0.0
  0
INSERT
  5
759
  8
_________1
 62
     7
  2
AIGNBL020100AA
 10
0.0
 20
0.0
 30
0.0
  0
INSERT
  5
75A
  8
_________1
 62
     7
  2
AIGNBL020100AB
 10
0.0
 20
0.0
 30
0.0
  0
INSERT
  5
75B
  8
_________1
 62
     7
  2
AIGNBL020100AC
 10
0.0
 20
0.0
 30
0.0
  0
INSERT
  5
75C
  8
_________1
 62
     7
  2
AIGNBL020100AD
 10
0.0
 20
0.0
 30
0.0
  0
INSERT
  5
75D
  8
_________1
 62
     7
  2
AIGNBL020100AE
 10
0.0
 20
0.0
 30
0.0
  0
INSERT
  5
75E
  8
_________1
 62
     7
  2
AIGNBL020100AF
 10
0.0
 20
0.0
 30
0.0
  0
INSERT
  5
75F
  8
_________1
 62
     7
  2
AIGNBL020100B0
 10
0.0
 20
0.0
 30
0.0
  0
INSERT
  5
760
  8
_________1
 62
     7
  2
AIGNBL020100B1
 10
0.0
 20
0.0
 30
0.0
  0
INSERT
  5
761
  8
_________1
 62
     7
  2
AIGNBL020100B2
 10
0.0
 20
0.0
 30
0.0
  0
TEXT
  5
762
  8
_________2
 62
     7
 10
200.4570586666666
 20
34.465299999999999
 30
0.0
 40
3.6545800000000002
  1
1 ： 5
 41
0.5
 72
     1
 11
203.86799999999999
 21
34.465299999999999
 31
0.0
  0
TEXT
  5
763
  8
_________2
 62
     7
 10
241.97887499999999
 20
30.3553
 30
0.0
 40
3.9357000000000002
  1
KW0231013700U
 41
0.5
 72
     1
 11
253.458
 21
30.3553
 31
0.0
  0
TEXT
  5
764
  8
_________2
 62
     7
 10
149.27189066666671
 20
34.850499999999997
 30
0.0
 40
3.6545800000000002
  1
井伊
 41
0.5
 72
     1
 11
151.221
 21
34.850499999999997
 31
0.0
  0
TEXT
  5
765
  8
_________2
 62
     7
 10
130.75880033333331
 20
34.850499999999997
 30
0.0
 40
3.6545800000000002
  1
福田
 41
0.5
 72
     1
 11
132.64699999999999
 21
34.850499999999997
 31
0.0
  0
TEXT
  5
766
  8
_________2
 62
     7
 10
177.69399999999999
 20
34.465299999999999
 30
0.0
 40
3.6545800000000002
  1
21.04.14
 41
0.5
  0
TEXT
  5
767
  8
_________2
 62
     7
 10
290.64778333333328
 20
12.808299999999999
 30
0.0
 40
3.3734599999999988
  1
A3
 41
0.5
 72
     2
 11
293.459
 21
12.808299999999999
 31
0.0
  0
TEXT
  5
768
  8
_________2
 62
     7
 10
134.495
 20
21.954699999999999
 30
0.0
 40
3.9357000000000002
  1
（社）日本水道協会認証品
 41
0.5
  0
LINE
  5
769
  8
_________2
 62
     7
 10
315.209
 20
148.65899999999999
 30
0.0
 11
293.459
 21
148.65899999999999
 31
0.0
  0
LINE
  5
76A
  8
_________2
 62
     7
 10
105.20699999999999
 20
17.156300000000002
 30
0.0
 11
105.20699999999999
 21
0.176045
 31
0.0
  0
LINE
  5
76B
  8
_________2
 62
     7
 10
105.20699999999999
 20
297.178
 30
0.0
 11
105.20699999999999
 21
280.15800000000002
 31
0.0
  0
LINE
  5
76C
  8
_________2
 62
     7
 10
-83.043899999999994
 20
148.65899999999999
 30
0.0
 11
-104.794
 21
148.65899999999999
 31
0.0
  0
INSERT
  5
76D
  8
_________2
 62
     7
  2
AIGNBL03010002
 10
0.0
 20
0.0
 30
0.0
  0
TEXT
  5
76E
  8
_________2
 62
     7
 10
214.51300000000001
 20
22.9269
 30
0.0
 40
3.0923400000000001
  1
図番
 41
0.5
  0
LINE
  5
76F
  8
_________2
 62
     7
 10
213.458
 20
27.156099999999999
 30
0.0
 11
293.459
 21
27.156099999999999
 31
0.0
  0
TEXT
  5
770
  8
_________2
 62
     7
 10
214.51300000000001
 20
32.926699999999997
 30
0.0
 40
3.0923400000000001
  1
品番
 41
0.5
  0
TEXT
  5
771
  8
_________2
 62
     7
 10
214.51300000000001
 20
53.0655
 30
0.0
 40
3.0923400000000001
  1
名称
 41
0.5
  0
TEXT
  5
772
  8
_________2
 62
     7
 10
201.75325833333329
 20
48.069400000000002
 30
0.0
 40
3.6545800000000002
  1
mm
 41
0.5
 72
     1
 11
203.27600000000001
 21
48.069400000000002
 31
0.0
  0
TEXT
  5
773
  8
_________2
 62
     7
 10
195.55099999999999
 20
53.0655
 30
0.0
 40
3.0923400000000001
  1
単位
 41
0.5
  0
TEXT
  5
774
  8
_________2
 62
     7
 10
195.55099999999999
 20
40.658200000000001
 30
0.0
 40
3.0923400000000001
  1
尺度
 41
0.5
  0
TEXT
  5
775
  8
_________2
 62
     7
 10
241.97887499999999
 20
20.354800000000001
 30
0.0
 40
3.9357000000000002
  1
KW0231013700U
 41
0.5
 72
     1
 11
253.458
 21
20.354800000000001
 31
0.0
  0
TEXT
  5
776
  8
_________2
 62
     7
 10
129.49600000000001
 20
132.15600000000001
 30
0.0
 40
3.9357000000000002
  1
給水圧力
 41
0.5
  0
TEXT
  5
777
  8
_________2
 62
     7
 10
129.49600000000001
 20
139.91900000000001
 30
0.0
 40
3.9357000000000002
  1
用途
 41
0.5
  0
TEXT
  5
778
  8
_________2
 62
     7
 10
169.50999999999999
 20
139.91900000000001
 30
0.0
 40
3.9357000000000002
  1
一般住宅用（屋内用）
 41
0.5
  0
LINE
  5
779
  8
_________2
 62
     7
 10
145.64099999999999
 20
137.81100000000001
 30
0.0
 11
145.64099999999999
 21
116.474
 31
0.0
  0
LINE
  5
77A
  8
_________2
 62
     7
 10
166.97200000000001
 20
145.57299999999989
 30
0.0
 11
166.97200000000001
 21
61.980800000000002
 31
0.0
  0
LINE
  5
77B
  8
_________2
 62
     7
 10
290.16199999999998
 20
145.57299999999989
 30
0.0
 11
126.95699999999999
 21
145.57299999999989
 31
0.0
  0
LINE
  5
77C
  8
_________2
 62
     7
 10
126.95699999999999
 20
145.57299999999989
 30
0.0
 11
126.95699999999999
 21
61.980800000000002
 31
0.0
  0
LINE
  5
77D
  8
_________2
 62
     7
 10
126.95699999999999
 20
61.980800000000002
 30
0.0
 11
290.16199999999998
 21
61.980800000000002
 31
0.0
  0
LINE
  5
77E
  8
_________2
 62
     7
 10
290.16199999999998
 20
61.980800000000002
 30
0.0
 11
290.16199999999998
 21
145.57299999999989
 31
0.0
  0
TEXT
  5
77F
  8
_________2
 62
     7
 10
147.41499999999999
 20
132.15600000000001
 30
0.0
 40
3.9357000000000002
  1
最低必要水圧
 41
0.5
  0
TEXT
  5
780
  8
_________2
 62
     7
 10
169.50999999999999
 20
132.15600000000001
 30
0.0
 40
3.9357000000000002
  1
0.1MPa（流動圧）
 41
0.5
  0
LINE
  5
781
  8
_________2
 62
     7
 10
126.95699999999999
 20
137.81100000000001
 30
0.0
 11
290.16199999999998
 21
137.81100000000001
 31
0.0
  0
TEXT
  5
782
  8
_________2
 62
     7
 10
129.49600000000001
 20
110.819
 30
0.0
 40
3.9357000000000002
  1
使用可能水質
 41
0.5
  0
TEXT
  5
783
  8
_________2
 62
     7
 10
169.50999999999999
 20
110.819
 30
0.0
 40
3.9357000000000002
  1
水道水
 41
0.5
  0
LINE
  5
784
  8
_________2
 62
     7
 10
126.95699999999999
 20
116.474
 30
0.0
 11
290.16199999999998
 21
116.474
 31
0.0
  0
TEXT
  5
785
  8
_________2
 62
     7
 10
147.41499999999999
 20
124.53400000000001
 30
0.0
 40
3.9357000000000002
  1
最高水圧
 41
0.5
  0
TEXT
  5
786
  8
_________2
 62
     7
 10
169.50999999999999
 20
118.602
 30
0.0
 40
3.9357000000000002
  1
※快適にお使いいただくためには、0.3MPa程度の圧力をおすすめします。
 41
0.5
  0
TEXT
  5
787
  8
_________2
 62
     7
 10
169.50999999999999
 20
124.53400000000001
 30
0.0
 40
3.9357000000000002
  1
0.5MPa（流動圧）
 41
0.5
  0
LINE
  5
788
  8
_________2
 62
     7
 10
145.64099999999999
 20
130.048
 30
0.0
 11
290.16199999999998
 21
130.048
 31
0.0
  0
TEXT
  5
789
  8
_________2
 62
     7
 10
129.49600000000001
 20
103.197
 30
0.0
 40
3.9357000000000002
  1
使用環境温度
 41
0.5
  0
TEXT
  5
78A
  8
_________2
 62
     7
 10
129.49600000000001
 20
89.623299999999986
 30
0.0
 40
3.9357000000000002
  1
最高給湯温度
 41
0.5
  0
TEXT
  5
78B
  8
_________2
 62
     7
 10
129.49600000000001
 20
75.920699999999997
 30
0.0
 40
3.9357000000000002
  1
特記事項
 41
0.5
  0
TEXT
  5
78C
  8
_________2
 62
     7
 10
169.50999999999999
 20
103.197
 30
0.0
 40
3.9357000000000002
  1
1～40℃
 41
0.5
  0
TEXT
  5
78D
  8
_________2
 62
     7
 10
169.50999999999999
 20
97.200199999999995
 30
0.0
 40
3.9357000000000002
  1
※寒冷地仕様ではありません、凍結が予想される場合は凍結予防をしてください。
 41
0.5
  0
LINE
  5
78E
  8
_________2
 62
     7
 10
126.95699999999999
 20
108.711
 30
0.0
 11
290.16199999999998
 21
108.711
 31
0.0
  0
TEXT
  5
78F
  8
_________2
 62
     7
 10
169.50999999999999
 20
89.623299999999986
 30
0.0
 40
3.9357000000000002
  1
70℃
 41
0.5
  0
TEXT
  5
790
  8
_________2
 62
     7
 10
169.50999999999999
 20
83.626099999999994
 30
0.0
 40
3.9357000000000002
  1
※安全のため給湯温度は60℃以下でのご使用をおすすめします。
 41
0.5
  0
TEXT
  5
791
  8
_________2
 62
     7
 10
169.50999999999999
 20
75.920699999999997
 30
0.0
 40
3.9357000000000002
  1
（1）水圧は湯水ほぼ同圧、且つ湯圧が水圧より高くならないように設定してください。
 41
0.5
  0
TEXT
  5
792
  8
_________2
 62
     7
 10
169.50999999999999
 20
69.923500000000004
 30
0.0
 40
3.9357000000000002
  1
（2）湯水を逆に配管しないでください。
 41
0.5
  0
TEXT
  5
793
  8
_________2
 62
     7
 10
169.50999999999999
 20
63.926200000000001
 30
0.0
 40
3.9357000000000002
  1
（3）フレキホース寸法公差\U+00B120
 41
0.5
  0
TEXT
  5
794
  8
_________2
 62
     7
 10
219.08699999999999
 20
45.473100000000002
 30
0.0
 40
3.9357000000000002
  1
リベロ キッチン用湯水混合水栓
 41
0.5
  0
TEXT
  5
795
  8
_________2
 62
     7
 10
176.501
 20
40.658200000000001
 30
0.0
 40
3.0923400000000001
  1
日付
 41
0.5
  0
TEXT
  5
796
  8
_________2
 62
     7
 10
139.547
 20
40.658200000000001
 30
0.0
 40
3.0923400000000001
  1
検図
 41
0.5
  0
TEXT
  5
797
  8
_________2
 62
     7
 10
127.929
 20
26.4588
 30
0.0
 40
3.0923400000000001
  1
備考
 41
0.5
  0
TEXT
  5
798
  8
_________2
 62
     7
 10
127.929
 20
40.658200000000001
 30
0.0
 40
3.0923400000000001
  1
製図
 41
0.5
  0
TEXT
  5
799
  8
_________2
 62
     7
 10
133.69596533333331
 20
49.184199999999997
 30
0.0
 40
4.4979399999999989
  1
セラトレーディング株式会社
 41
0.5
 72
     1
 11
151.08799999999999
 21
49.184199999999997
 31
0.0
  0
LINE
  5
79A
  8
_________2
 62
     7
 10
293.459
 20
17.156300000000002
 30
0.0
 11
-83.043899999999994
 21
17.156300000000002
 31
0.0
  0
LINE
  5
79B
  8
_________2
 62
     7
 10
-83.043899999999994
 20
17.156300000000002
 30
0.0
 11
-83.043899999999994
 21
280.15800000000002
 31
0.0
  0
LINE
  5
79C
  8
_________2
 62
     7
 10
-83.043899999999994
 20
280.15800000000002
 30
0.0
 11
293.459
 21
280.15800000000002
 31
0.0
  0
LINE
  5
79D
  8
_________2
 62
     7
 10
293.459
 20
280.15800000000002
 30
0.0
 11
293.459
 21
17.156300000000002
 31
0.0
  0
LINE
  5
79E
  8
_________2
 62
     7
 10
175.458
 20
30.656400000000001
 30
0.0
 11
175.458
 21
57.156199999999998
 31
0.0
  0
LINE
  5
79F
  8
_________2
 62
     7
 10
194.458
 20
30.656400000000001
 30
0.0
 11
194.458
 21
57.156199999999998
 31
0.0
  0
LINE
  5
7A0
  8
_________2
 62
     7
 10
126.95699999999999
 20
17.156300000000002
 30
0.0
 11
126.95699999999999
 21
57.156199999999998
 31
0.0
  0
LINE
  5
7A1
  8
_________2
 62
     7
 10
213.458
 20
17.156300000000002
 30
0.0
 11
213.458
 21
57.156199999999998
 31
0.0
  0
LINE
  5
7A2
  8
_________2
 62
     7
 10
138.45699999999999
 20
30.656400000000001
 30
0.0
 11
138.45699999999999
 21
44.65659999999999
 31
0.0
  0
LINE
  5
7A3
  8
_________2
 62
     7
 10
126.95699999999999
 20
30.656400000000001
 30
0.0
 11
213.458
 21
30.656400000000001
 31
0.0
  0
LINE
  5
7A4
  8
_________2
 62
     7
 10
126.95699999999999
 20
44.65659999999999
 30
0.0
 11
213.458
 21
44.65659999999999
 31
0.0
  0
LINE
  5
7A5
  8
_________2
 62
     7
 10
213.458
 20
37.15590000000001
 30
0.0
 11
293.459
 21
37.15590000000001
 31
0.0
  0
LINE
  5
7A6
  8
_________2
 62
     7
 10
126.95699999999999
 20
95.137299999999996
 30
0.0
 11
290.16199999999998
 21
95.137299999999996
 31
0.0
  0
LINE
  5
7A7
  8
_________2
 62
     7
 10
126.95699999999999
 20
81.563199999999995
 30
0.0
 11
290.16199999999998
 21
81.563199999999995
 31
0.0
  0
LINE
  5
7A8
  8
_________2
 62
     7
 10
126.95699999999999
 20
57.156199999999998
 30
0.0
 11
293.459
 21
57.156199999999998
 31
0.0
  0
ENDSEC
  0
EOF
